0
SECTION
2
HEADER
9
$ACADVER
1
AC1012
9
$EXTMIN
10
0.000000
20
0.000000
30
0.0
9
$EXTMAX
10
13.390000
20
14.180000
30
0.0
9
$LIMMIN
10
0.000000
20
0.000000
9
$LIMMAX
10
340.106000
20
360.172000
9
$DIMSCALE
40
1.000000
9
$PDMODE
70
2
9
$PDSIZE
40
0.0
  9
$HANDSEED
  5
a71
0
ENDSEC
0
SECTION
2
CLASSES
0
ENDSEC
0
SECTION
2
TABLES
0
TABLE
2
LTYPE
5
1e
100
AcDbSymbolTable
70
12
0
LTYPE
5
1f
100
AcDbSymbolTableRecord
100
AcDbLinetypeTableRecord
2
BYBLOCK
70
0
3

72
65
73
0
40
0.0
0
LTYPE
5
20
100
AcDbSymbolTableRecord
100
AcDbLinetypeTableRecord
2
BYLAYER
70
0
3

72
65
73
0
40
0.0
0
LTYPE
5
21
100
AcDbSymbolTableRecord
100
AcDbLinetypeTableRecord
2
CONTINUOUS
70
64
3
Solid line
72
65
73
0
40
0.0
0
LTYPE
5
22
100
AcDbSymbolTableRecord
100
AcDbLinetypeTableRecord
2
DASHED
70
64
3
__ __ __ __ __ __ __ __ __ __ __ __ __ __ __
72
65
73
2
40
0.75
49
0.5
74
0
49
-0.25
74
0
0
LTYPE
5
23
100
AcDbSymbolTableRecord
100
AcDbLinetypeTableRecord
2
DOT
70
64
3
...............................................
72
65
73
2
40
0.25
49
0.0
74
0
49
-0.25
74
0
0
LTYPE
5
24
100
AcDbSymbolTableRecord
100
AcDbLinetypeTableRecord
2
DASHDOT
70
64
3
__ . __ . __ . __ . __ . __ . __ . __ . __ . --
72
65
73
4
40
1.0
49
0.5
74
0
49
-0.25
74
0
49
0.0
74
0
49
-0.25
74
0
0
LTYPE
5
25
100
AcDbSymbolTableRecord
100
AcDbLinetypeTableRecord
2
CENTER
70
64
3
____ _ ____ _ ____ _ ____ _ ____ _ ____ _ ____
72
65
73
4
40
2.0
49
1.25
74
0
49
-0.25
74
0
49
0.25
74
0
49
-0.25
74
0
0
LTYPE
5
26
100
AcDbSymbolTableRecord
100
AcDbLinetypeTableRecord
2
PHANTOM
70
64
3
_____ _ _ _____ _ _ _____ _ _ _____ _ _ ____
72
65
73
6
40
2.5
49
1.25
74
0
49
-0.25
74
0
49
0.25
74
0
49
-0.25
74
0
49
0.25
74
0
49
-0.25
74
0
0
LTYPE
5
27
100
AcDbSymbolTableRecord
100
AcDbLinetypeTableRecord
2
HIDDEN
70
64
3
_ _ _ _ _ _ _ _ _ _ _ _ _ _ _ _ _ _ _ _ _ _ _
72
65
73
2
40
0.375
49
0.25
74
0
49
-0.125
74
0
0
LTYPE
5
28
100
AcDbSymbolTableRecord
100
AcDbLinetypeTableRecord
2
BORDER
70
64
3
__ __ . __ __ . __ __ . __ __ . __ __ . __ __
72
65
73
6
40
1.75
49
0.5
74
0
49
-0.25
74
0
49
0.5
74
0
49
-0.25
74
0
49
0.0
74
0
49
-0.25
74
0
0
LTYPE
5
29
100
AcDbSymbolTableRecord
100
AcDbLinetypeTableRecord
2
DIVIDE
70
64
3
__ . . __ . . __ . . __ . . __ . . __ . . __
72
65
73
6
40
1.25
49
0.5
74
0
49
-0.25
74
0
49
0.0
74
0
49
-0.25
74
0
49
0.0
74
0
49
-0.25
74
0
0
LTYPE
5
2a
100
AcDbSymbolTableRecord
100
AcDbLinetypeTableRecord
2
DOT2
70
64
3
...............................................
72
65
73
2
40
0.125
49
0.0
74
0
49
-0.125
74
0
0
ENDTAB
0
TABLE
2
STYLE
5
2b
100
AcDbSymbolTable
70
1
0
STYLE
5
2c
100
AcDbSymbolTableRecord
100
AcDbTextStyleTableRecord
2
STANDARD
70
64
40
0.0
41
1.0
50
0.0
71
0
42
5.0
3
txt
4
bigfont
0
ENDTAB
0
TABLE
2
LAYER
5
2d
100
AcDbSymbolTable
70
2
0
LAYER
5
2e
100
AcDbSymbolTableRecord
100
AcDbLayerTableRecord
2
0
70
0
62
7
6
CONTINUOUS
0
LAYER
5
2f
100
AcDbSymbolTableRecord
100
AcDbLayerTableRecord
2
1
70
0
62
7
6
CONTINUOUS
0
ENDTAB
0
TABLE
2
APPID
5
30
100
AcDbSymbolTable
70
1
0
APPID
5
31
100
AcDbSymbolTableRecord
100
AcDbRegAppTableRecord
2
ACAD
70
64
0
ENDTAB
0
TABLE
2
DIMSTYLE
5
32
100
AcDbSymbolTable
70
0
0
ENDTAB
0
TABLE
2
UCS
5
33
100
AcDbSymbolTable
70
0
0
ENDTAB
0
TABLE
2
VIEW
5
34
100
AcDbSymbolTable
70
0
0
ENDTAB
0
TABLE
2
VPORT
5
35
100
AcDbSymbolTable
70
0
0
ENDTAB
0
TABLE
2
BLOCK_RECORD
5
36
100
AcDbSymbolTable
70
0
0
BLOCK_RECORD
5
37
100
AcDbSymbolTableRecord
100
AcDbBlockTableRecord
2
*MODEL_SPACE
0
BLOCK_RECORD
5
38
100
AcDbSymbolTableRecord
100
AcDbBlockTableRecord
2
*PAPER_SPACE
0
BLOCK_RECORD
5
39
100
AcDbSymbolTableRecord
100
AcDbBlockTableRecord
2
OPEN
0
BLOCK_RECORD
5
3a
100
AcDbSymbolTableRecord
100
AcDbBlockTableRecord
2
HALF
0
BLOCK_RECORD
5
3b
100
AcDbSymbolTableRecord
100
AcDbBlockTableRecord
2
CLOSEDBLANK
0
BLOCK_RECORD
5
3c
100
AcDbSymbolTableRecord
100
AcDbBlockTableRecord
2
HALFCLOSE_R
0
BLOCK_RECORD
5
3d
100
AcDbSymbolTableRecord
100
AcDbBlockTableRecord
2
DOT
0
BLOCK_RECORD
5
3e
100
AcDbSymbolTableRecord
100
AcDbBlockTableRecord
2
HALFOPEN_R
0
BLOCK_RECORD
5
3f
100
AcDbSymbolTableRecord
100
AcDbBlockTableRecord
2
CLOSEDF
0
BLOCK_RECORD
5
40
100
AcDbSymbolTableRecord
100
AcDbBlockTableRecord
2
HALF_R
0
ENDTAB
0
ENDSEC
0
SECTION
2
BLOCKS
0
BLOCK
5
41
100
AcDbEntity
8
0
100
AcDbBlockBegin
2
*MODEL_SPACE
70
0
10
0.0
20
0.0
30
0.0
3
*MODEL_SPACE
1

0
ENDBLK
5
42
100
AcDbEntity
8
0
100
AcDbBlockEnd
0
BLOCK
5
43
100
AcDbEntity
67
1
8
0
100
AcDbBlockBegin
2
*PAPER_SPACE
70
0
10
0.0
20
0.0
30
0.0
3
*PAPER_SPACE
1

0
ENDBLK
5
44
100
AcDbEntity
67
1
8
0
100
AcDbBlockEnd
0
BLOCK
5
45
100
AcDbEntity
8
0
100
AcDbBlockBegin
2
OPEN
70
0
10
0.0
20
0.0
30
0.0
3
OPEN
1

0
LINE
5
46
100
AcDbEntity
8
0
6
BYBLOCK
62
0
100
AcDbLine
10
0.000000
20
0.000000
11
-1.000000
21
0.000000
0
LINE
5
47
100
AcDbEntity
8
0
6
BYBLOCK
62
0
100
AcDbLine
10
-1.000000
20
-0.166667
11
0.000000
21
0.000000
0
LINE
5
48
100
AcDbEntity
8
0
6
BYBLOCK
62
0
100
AcDbLine
10
-1.000000
20
0.166667
11
0.000000
21
0.000000
0
ENDBLK
5
49
100
AcDbEntity
8
0
100
AcDbBlockEnd
0
BLOCK
5
4a
100
AcDbEntity
8
0
100
AcDbBlockBegin
2
HALF
70
0
10
0.0
20
0.0
30
0.0
3
HALF
1

0
SOLID
5
4b
100
AcDbEntity
8
0
6
BYBLOCK
62
0
100
AcDbTrace
10
-1.000000
20
0.166667
11
-1.000000
21
-0.166667
12
0.000000
22
0.000000
13
0.000000
23
0.000000
0
ENDBLK
5
4c
100
AcDbEntity
8
0
100
AcDbBlockEnd
0
BLOCK
5
4d
100
AcDbEntity
8
0
100
AcDbBlockBegin
2
CLOSEDBLANK
70
0
10
0.0
20
0.0
30
0.0
3
CLOSEDBLANK
1

0
LINE
5
4e
100
AcDbEntity
8
0
6
BYBLOCK
62
0
100
AcDbLine
10
-1.000000
20
0.166667
11
-1.000000
21
-0.166667
0
LINE
5
4f
100
AcDbEntity
8
0
6
BYBLOCK
62
0
100
AcDbLine
10
0.000000
20
0.000000
11
-1.000000
21
-0.166667
0
LINE
5
50
100
AcDbEntity
8
0
6
BYBLOCK
62
0
100
AcDbLine
10
-1.000000
20
0.166667
11
0.000000
21
0.000000
0
ENDBLK
5
51
100
AcDbEntity
8
0
100
AcDbBlockEnd
0
BLOCK
5
52
100
AcDbEntity
8
0
100
AcDbBlockBegin
2
HALFCLOSE_R
70
0
10
0.0
20
0.0
30
0.0
3
HALFCLOSE_R
1

0
LINE
5
53
100
AcDbEntity
8
0
6
BYBLOCK
62
0
100
AcDbLine
10
-1.000000
20
-0.166667
11
-1.000000
21
0.000000
0
LINE
5
54
100
AcDbEntity
8
0
6
BYBLOCK
62
0
100
AcDbLine
10
-1.000000
20
-0.166667
11
0.000000
21
0.000000
0
LINE
5
55
100
AcDbEntity
8
0
6
BYBLOCK
62
0
100
AcDbLine
10
0.000000
20
0.000000
11
-1.000000
21
0.000000
0
ENDBLK
5
56
100
AcDbEntity
8
0
100
AcDbBlockEnd
0
BLOCK
5
57
100
AcDbEntity
8
0
100
AcDbBlockBegin
2
DOT
70
0
10
0.0
20
0.0
30
0.0
3
DOT
1

0
LINE
5
58
100
AcDbEntity
8
0
6
BYBLOCK
62
0
100
AcDbLine
10
0.000000
20
0.000000
11
-1.000000
21
0.000000
0
POLYLINE
5
59
100
AcDbEntity
8
0
6
BYBLOCK
62
0
100
AcDb2dPolyline
66
1
10
0.0
20
0.0
30
0.0
70
1
40
0.166667
41
0.166667
0
VERTEX
5
5a
100
AcDbEntity
8
0
100
AcDbVertex
100
AcDb2dVertex
62
10
10
-0.083333
20
0.000000
42
1.000000
0
VERTEX
5
5b
100
AcDbEntity
8
0
100
AcDbVertex
100
AcDb2dVertex
62
10
10
0.083333
20
0.000000
42
1.000000
0
SEQEND
5
5c
100
AcDbEntity
8
0
0
ENDBLK
5
5d
100
AcDbEntity
8
0
100
AcDbBlockEnd
0
BLOCK
5
5e
100
AcDbEntity
8
0
100
AcDbBlockBegin
2
HALFOPEN_R
70
0
10
0.0
20
0.0
30
0.0
3
HALFOPEN_R
1

0
LINE
5
5f
100
AcDbEntity
8
0
6
BYBLOCK
62
0
100
AcDbLine
10
-1.000000
20
-0.166667
11
0.000000
21
0.000000
0
LINE
5
60
100
AcDbEntity
8
0
6
BYBLOCK
62
0
100
AcDbLine
10
0.000000
20
0.000000
11
-1.000000
21
0.000000
0
ENDBLK
5
61
100
AcDbEntity
8
0
100
AcDbBlockEnd
0
BLOCK
5
62
100
AcDbEntity
8
0
100
AcDbBlockBegin
2
CLOSEDF
70
0
10
0.0
20
0.0
30
0.0
3
CLOSEDF
1

0
SOLID
5
63
100
AcDbEntity
8
0
6
BYBLOCK
62
0
100
AcDbTrace
10
-1.000000
20
0.166667
11
-1.000000
21
-0.166667
12
0.000000
22
0.000000
13
0.000000
23
0.000000
0
ENDBLK
5
64
100
AcDbEntity
8
0
100
AcDbBlockEnd
0
BLOCK
5
65
100
AcDbEntity
8
0
100
AcDbBlockBegin
2
HALF_R
70
0
10
0.0
20
0.0
30
0.0
3
HALF_R
1

0
SOLID
5
66
100
AcDbEntity
8
0
6
BYBLOCK
62
0
100
AcDbTrace
10
-1.000000
20
-0.166667
11
-1.000000
21
0.000000
12
0.000000
22
0.000000
13
0.000000
23
0.000000
0
ENDBLK
5
67
100
AcDbEntity
8
0
100
AcDbBlockEnd
0
ENDSEC
0
SECTION
2
ENTITIES
0
LINE
5
68
100
AcDbEntity
8
1
100
AcDbLine
6
CONTINUOUS
62
5
10
222.250000
20
339.625000
11
221.000000
21
337.750000
0
LINE
5
69
100
AcDbEntity
8
1
100
AcDbLine
6
CONTINUOUS
62
5
10
220.750000
20
338.062500
11
221.750000
21
336.812500
0
LINE
5
6a
100
AcDbEntity
8
1
100
AcDbLine
6
CONTINUOUS
62
5
10
222.750000
20
338.062500
11
220.750000
21
335.562500
0
LINE
5
6b
100
AcDbEntity
8
1
100
AcDbLine
6
CONTINUOUS
62
5
10
220.500000
20
335.562500
11
222.750000
21
335.562500
0
LINE
5
6c
100
AcDbEntity
8
1
100
AcDbLine
6
CONTINUOUS
62
5
10
222.500000
20
336.187500
11
223.000000
21
334.937500
0
LINE
5
6d
100
AcDbEntity
8
1
100
AcDbLine
6
CONTINUOUS
62
5
10
221.750000
20
335.562500
11
221.750000
21
330.875000
0
LINE
5
6e
100
AcDbEntity
8
1
100
AcDbLine
6
CONTINUOUS
62
5
10
221.000000
20
334.312500
11
220.500000
21
331.812500
0
LINE
5
6f
100
AcDbEntity
8
1
100
AcDbLine
6
CONTINUOUS
62
5
10
222.500000
20
334.312500
11
223.000000
21
332.750000
0
POLYLINE
5
70
100
AcDbEntity
8
1
6
CONTINUOUS
62
5
100
AcDb2dPolyline
66
1
10
0.0
20
0.0
30
0.0
70
0
0
VERTEX
5
71
100
AcDbEntity
8
1
100
AcDbVertex
100
AcDb2dVertex
62
5
10
223.750000
20
339.000000
0
VERTEX
5
72
100
AcDbEntity
8
1
100
AcDbVertex
100
AcDb2dVertex
62
5
10
226.250000
20
339.000000
0
VERTEX
5
73
100
AcDbEntity
8
1
100
AcDbVertex
100
AcDb2dVertex
62
5
10
226.250000
20
336.500000
0
SEQEND
5
74
100
AcDbEntity
8
1
0
LINE
5
75
100
AcDbEntity
8
1
100
AcDbLine
6
CONTINUOUS
62
5
10
224.000000
20
337.750000
11
226.250000
21
337.750000
0
LINE
5
76
100
AcDbEntity
8
1
100
AcDbLine
6
CONTINUOUS
62
5
10
223.250000
20
336.500000
11
227.250000
21
336.500000
0
POLYLINE
5
77
100
AcDbEntity
8
1
6
CONTINUOUS
62
5
100
AcDb2dPolyline
66
1
10
0.0
20
0.0
30
0.0
70
0
0
VERTEX
5
78
100
AcDbEntity
8
1
100
AcDbVertex
100
AcDb2dVertex
62
5
10
225.250000
20
336.500000
0
VERTEX
5
79
100
AcDbEntity
8
1
100
AcDbVertex
100
AcDb2dVertex
62
5
10
224.750000
20
335.562500
0
VERTEX
5
7a
100
AcDbEntity
8
1
100
AcDbVertex
100
AcDb2dVertex
62
5
10
223.500000
20
334.625000
0
SEQEND
5
7b
100
AcDbEntity
8
1
0
POLYLINE
5
7c
100
AcDbEntity
8
1
6
CONTINUOUS
62
5
100
AcDb2dPolyline
66
1
10
0.0
20
0.0
30
0.0
70
0
0
VERTEX
5
7d
100
AcDbEntity
8
1
100
AcDbVertex
100
AcDb2dVertex
62
5
10
224.750000
20
335.562500
0
VERTEX
5
7e
100
AcDbEntity
8
1
100
AcDbVertex
100
AcDb2dVertex
62
5
10
225.500000
20
334.625000
0
VERTEX
5
7f
100
AcDbEntity
8
1
100
AcDbVertex
100
AcDb2dVertex
62
5
10
225.750000
20
333.375000
0
VERTEX
5
80
100
AcDbEntity
8
1
100
AcDbVertex
100
AcDb2dVertex
62
5
10
225.750000
20
332.437500
0
VERTEX
5
81
100
AcDbEntity
8
1
100
AcDbVertex
100
AcDb2dVertex
62
5
10
225.000000
20
330.875000
0
VERTEX
5
82
100
AcDbEntity
8
1
100
AcDbVertex
100
AcDb2dVertex
62
5
10
224.250000
20
331.187500
0
SEQEND
5
83
100
AcDbEntity
8
1
0
POLYLINE
5
84
100
AcDbEntity
8
1
6
CONTINUOUS
62
5
100
AcDb2dPolyline
66
1
10
0.0
20
0.0
30
0.0
70
0
0
VERTEX
5
85
100
AcDbEntity
8
1
100
AcDbVertex
100
AcDb2dVertex
62
5
10
225.250000
20
334.937500
0
VERTEX
5
86
100
AcDbEntity
8
1
100
AcDbVertex
100
AcDb2dVertex
62
5
10
224.500000
20
334.000000
0
VERTEX
5
87
100
AcDbEntity
8
1
100
AcDbVertex
100
AcDb2dVertex
62
5
10
223.750000
20
333.375000
0
SEQEND
5
88
100
AcDbEntity
8
1
0
POLYLINE
5
89
100
AcDbEntity
8
1
6
CONTINUOUS
62
5
100
AcDb2dPolyline
66
1
10
0.0
20
0.0
30
0.0
70
0
0
VERTEX
5
8a
100
AcDbEntity
8
1
100
AcDbVertex
100
AcDb2dVertex
62
5
10
225.500000
20
334.000000
0
VERTEX
5
8b
100
AcDbEntity
8
1
100
AcDbVertex
100
AcDb2dVertex
62
5
10
224.750000
20
332.750000
0
VERTEX
5
8c
100
AcDbEntity
8
1
100
AcDbVertex
100
AcDb2dVertex
62
5
10
224.000000
20
332.125000
0
VERTEX
5
8d
100
AcDbEntity
8
1
100
AcDbVertex
100
AcDb2dVertex
62
5
10
223.250000
20
331.812500
0
SEQEND
5
8e
100
AcDbEntity
8
1
0
LINE
5
8f
100
AcDbEntity
8
1
100
AcDbLine
6
CONTINUOUS
62
5
10
227.000000
20
335.562500
11
226.000000
21
334.312500
0
POLYLINE
5
90
100
AcDbEntity
8
1
6
CONTINUOUS
62
5
100
AcDb2dPolyline
66
1
10
0.0
20
0.0
30
0.0
70
0
0
VERTEX
5
91
100
AcDbEntity
8
1
100
AcDbVertex
100
AcDb2dVertex
62
5
10
225.750000
20
336.500000
0
VERTEX
5
92
100
AcDbEntity
8
1
100
AcDbVertex
100
AcDb2dVertex
62
5
10
226.000000
20
334.312500
0
VERTEX
5
93
100
AcDbEntity
8
1
100
AcDbVertex
100
AcDb2dVertex
62
5
10
226.750000
20
332.125000
0
VERTEX
5
94
100
AcDbEntity
8
1
100
AcDbVertex
100
AcDb2dVertex
62
5
10
227.500000
20
330.875000
0
SEQEND
5
95
100
AcDbEntity
8
1
0
LINE
5
96
100
AcDbEntity
8
1
100
AcDbLine
6
CONTINUOUS
62
5
10
228.500000
20
339.000000
11
232.250000
21
339.000000
0
LINE
5
97
100
AcDbEntity
8
1
100
AcDbLine
6
CONTINUOUS
62
5
10
229.250000
20
339.000000
11
229.250000
21
332.437500
0
LINE
5
98
100
AcDbEntity
8
1
100
AcDbLine
6
CONTINUOUS
62
5
10
231.250000
20
339.000000
11
231.250000
21
330.875000
0
LINE
5
99
100
AcDbEntity
8
1
100
AcDbLine
6
CONTINUOUS
62
5
10
229.250000
20
336.812500
11
231.250000
21
336.812500
0
LINE
5
9a
100
AcDbEntity
8
1
100
AcDbLine
6
CONTINUOUS
62
5
10
229.250000
20
334.937500
11
231.250000
21
334.937500
0
LINE
5
9b
100
AcDbEntity
8
1
100
AcDbLine
6
CONTINUOUS
62
5
10
228.250000
20
332.125000
11
231.250000
21
333.062500
0
POLYLINE
5
9c
100
AcDbEntity
8
1
6
CONTINUOUS
62
5
100
AcDb2dPolyline
66
1
10
0.0
20
0.0
30
0.0
70
0
0
VERTEX
5
9d
100
AcDbEntity
8
1
100
AcDbVertex
100
AcDb2dVertex
62
5
10
232.000000
20
337.437500
0
VERTEX
5
9e
100
AcDbEntity
8
1
100
AcDbVertex
100
AcDb2dVertex
62
5
10
235.250000
20
337.437500
0
VERTEX
5
9f
100
AcDbEntity
8
1
100
AcDbVertex
100
AcDb2dVertex
62
5
10
234.750000
20
335.250000
0
VERTEX
5
a0
100
AcDbEntity
8
1
100
AcDbVertex
100
AcDb2dVertex
62
5
10
234.250000
20
334.000000
0
VERTEX
5
a1
100
AcDbEntity
8
1
100
AcDbVertex
100
AcDb2dVertex
62
5
10
233.250000
20
332.125000
0
VERTEX
5
a2
100
AcDbEntity
8
1
100
AcDbVertex
100
AcDb2dVertex
62
5
10
232.000000
20
330.875000
0
SEQEND
5
a3
100
AcDbEntity
8
1
0
POLYLINE
5
a4
100
AcDbEntity
8
1
6
CONTINUOUS
62
5
100
AcDb2dPolyline
66
1
10
0.0
20
0.0
30
0.0
70
0
0
VERTEX
5
a5
100
AcDbEntity
8
1
100
AcDbVertex
100
AcDb2dVertex
62
5
10
232.250000
20
336.187500
0
VERTEX
5
a6
100
AcDbEntity
8
1
100
AcDbVertex
100
AcDb2dVertex
62
5
10
233.000000
20
334.312500
0
VERTEX
5
a7
100
AcDbEntity
8
1
100
AcDbVertex
100
AcDb2dVertex
62
5
10
234.000000
20
332.437500
0
VERTEX
5
a8
100
AcDbEntity
8
1
100
AcDbVertex
100
AcDb2dVertex
62
5
10
235.500000
20
330.875000
0
SEQEND
5
a9
100
AcDbEntity
8
1
0
POLYLINE
5
aa
100
AcDbEntity
8
1
6
CONTINUOUS
62
5
100
AcDb2dPolyline
66
1
10
0.0
20
0.0
30
0.0
70
0
0
VERTEX
5
ab
100
AcDbEntity
8
1
100
AcDbVertex
100
AcDb2dVertex
62
5
10
238.500000
20
339.312500
0
VERTEX
5
ac
100
AcDbEntity
8
1
100
AcDbVertex
100
AcDb2dVertex
62
5
10
237.500000
20
336.500000
0
VERTEX
5
ad
100
AcDbEntity
8
1
100
AcDbVertex
100
AcDb2dVertex
62
5
10
236.250000
20
334.312500
0
SEQEND
5
ae
100
AcDbEntity
8
1
0
LINE
5
af
100
AcDbEntity
8
1
100
AcDbLine
6
CONTINUOUS
62
5
10
237.500000
20
336.500000
11
237.500000
21
330.562500
0
LINE
5
b0
100
AcDbEntity
8
1
100
AcDbLine
6
CONTINUOUS
62
5
10
238.250000
20
336.500000
11
243.500000
21
336.500000
0
POLYLINE
5
b1
100
AcDbEntity
8
1
6
CONTINUOUS
62
5
100
AcDb2dPolyline
66
1
10
0.0
20
0.0
30
0.0
70
0
0
VERTEX
5
b2
100
AcDbEntity
8
1
100
AcDbVertex
100
AcDb2dVertex
62
5
10
241.750000
20
339.312500
0
VERTEX
5
b3
100
AcDbEntity
8
1
100
AcDbVertex
100
AcDb2dVertex
62
5
10
241.750000
20
330.875000
0
VERTEX
5
b4
100
AcDbEntity
8
1
100
AcDbVertex
100
AcDb2dVertex
62
5
10
240.250000
20
331.187500
0
SEQEND
5
b5
100
AcDbEntity
8
1
0
LINE
5
b6
100
AcDbEntity
8
1
100
AcDbLine
6
CONTINUOUS
62
5
10
239.250000
20
335.250000
11
240.250000
21
333.375000
0
LINE
5
b7
100
AcDbEntity
8
1
100
AcDbLine
6
CONTINUOUS
62
5
10
250.250000
20
335.562500
11
251.000000
21
335.562500
0
LINE
5
b8
100
AcDbEntity
8
1
100
AcDbLine
6
CONTINUOUS
62
5
10
244.250000
20
336.812500
11
246.750000
21
336.812500
0
LINE
5
b9
100
AcDbEntity
8
1
100
AcDbLine
6
CONTINUOUS
62
5
10
245.750000
20
339.312500
11
245.750000
21
330.562500
0
POLYLINE
5
ba
100
AcDbEntity
8
1
6
CONTINUOUS
62
5
100
AcDb2dPolyline
66
1
10
0.0
20
0.0
30
0.0
70
0
0
VERTEX
5
bb
100
AcDbEntity
8
1
100
AcDbVertex
100
AcDb2dVertex
62
5
10
245.750000
20
336.812500
0
VERTEX
5
bc
100
AcDbEntity
8
1
100
AcDbVertex
100
AcDb2dVertex
62
5
10
245.000000
20
334.312500
0
VERTEX
5
bd
100
AcDbEntity
8
1
100
AcDbVertex
100
AcDb2dVertex
62
5
10
244.250000
20
332.750000
0
SEQEND
5
be
100
AcDbEntity
8
1
0
LINE
5
bf
100
AcDbEntity
8
1
100
AcDbLine
6
CONTINUOUS
62
5
10
245.750000
20
336.187500
11
246.500000
21
334.312500
0
POLYLINE
5
c0
100
AcDbEntity
8
1
6
CONTINUOUS
62
5
100
AcDb2dPolyline
66
1
10
0.0
20
0.0
30
0.0
70
0
0
VERTEX
5
c1
100
AcDbEntity
8
1
100
AcDbVertex
100
AcDb2dVertex
62
5
10
247.000000
20
337.750000
0
VERTEX
5
c2
100
AcDbEntity
8
1
100
AcDbVertex
100
AcDb2dVertex
62
5
10
249.750000
20
337.750000
0
VERTEX
5
c3
100
AcDbEntity
8
1
100
AcDbVertex
100
AcDb2dVertex
62
5
10
249.750000
20
336.500000
0
VERTEX
5
c4
100
AcDbEntity
8
1
100
AcDbVertex
100
AcDb2dVertex
62
5
10
250.250000
20
335.562500
0
SEQEND
5
c5
100
AcDbEntity
8
1
0
POLYLINE
5
c6
100
AcDbEntity
8
1
6
CONTINUOUS
62
5
100
AcDb2dPolyline
66
1
10
0.0
20
0.0
30
0.0
70
0
0
VERTEX
5
c7
100
AcDbEntity
8
1
100
AcDbVertex
100
AcDb2dVertex
62
5
10
248.500000
20
339.625000
0
VERTEX
5
c8
100
AcDbEntity
8
1
100
AcDbVertex
100
AcDb2dVertex
62
5
10
248.250000
20
337.125000
0
VERTEX
5
c9
100
AcDbEntity
8
1
100
AcDbVertex
100
AcDb2dVertex
62
5
10
247.750000
20
335.875000
0
VERTEX
5
ca
100
AcDbEntity
8
1
100
AcDbVertex
100
AcDb2dVertex
62
5
10
247.000000
20
335.250000
0
SEQEND
5
cb
100
AcDbEntity
8
1
0
POLYLINE
5
cc
100
AcDbEntity
8
1
6
CONTINUOUS
62
5
100
AcDb2dPolyline
66
1
10
0.0
20
0.0
30
0.0
70
0
0
VERTEX
5
cd
100
AcDbEntity
8
1
100
AcDbVertex
100
AcDb2dVertex
62
5
10
251.000000
20
335.562500
0
VERTEX
5
ce
100
AcDbEntity
8
1
100
AcDbVertex
100
AcDb2dVertex
62
5
10
251.250000
20
335.875000
0
VERTEX
5
cf
100
AcDbEntity
8
1
100
AcDbVertex
100
AcDb2dVertex
62
5
10
251.250000
20
337.125000
0
SEQEND
5
d0
100
AcDbEntity
8
1
0
LINE
5
d1
100
AcDbEntity
8
1
100
AcDbLine
6
CONTINUOUS
62
5
10
246.750000
20
333.687500
11
251.500000
21
333.687500
0
LINE
5
d2
100
AcDbEntity
8
1
100
AcDbLine
6
CONTINUOUS
62
5
10
249.000000
20
335.250000
11
249.000000
21
330.562500
0
LINE
5
d3
100
AcDbEntity
8
1
100
AcDbLine
6
CONTINUOUS
62
5
10
173.750000
20
337.437500
11
174.750000
21
336.187500
0
POLYLINE
5
d4
100
AcDbEntity
8
1
6
CONTINUOUS
62
5
100
AcDb2dPolyline
66
1
10
0.0
20
0.0
30
0.0
70
0
0
VERTEX
5
d5
100
AcDbEntity
8
1
100
AcDbVertex
100
AcDb2dVertex
62
5
10
173.500000
20
332.437500
0
VERTEX
5
d6
100
AcDbEntity
8
1
100
AcDbVertex
100
AcDb2dVertex
62
5
10
175.250000
20
333.375000
0
VERTEX
5
d7
100
AcDbEntity
8
1
100
AcDbVertex
100
AcDb2dVertex
62
5
10
176.750000
20
334.625000
0
VERTEX
5
d8
100
AcDbEntity
8
1
100
AcDbVertex
100
AcDb2dVertex
62
5
10
178.250000
20
336.187500
0
SEQEND
5
d9
100
AcDbEntity
8
1
0
LINE
5
da
100
AcDbEntity
8
1
100
AcDbLine
6
CONTINUOUS
62
5
10
189.750000
20
337.437500
11
190.750000
21
336.187500
0
POLYLINE
5
db
100
AcDbEntity
8
1
6
CONTINUOUS
62
5
100
AcDb2dPolyline
66
1
10
0.0
20
0.0
30
0.0
70
0
0
VERTEX
5
dc
100
AcDbEntity
8
1
100
AcDbVertex
100
AcDb2dVertex
62
5
10
189.500000
20
332.437500
0
VERTEX
5
dd
100
AcDbEntity
8
1
100
AcDbVertex
100
AcDb2dVertex
62
5
10
191.250000
20
333.375000
0
VERTEX
5
de
100
AcDbEntity
8
1
100
AcDbVertex
100
AcDb2dVertex
62
5
10
192.750000
20
334.625000
0
VERTEX
5
df
100
AcDbEntity
8
1
100
AcDbVertex
100
AcDb2dVertex
62
5
10
194.250000
20
336.187500
0
SEQEND
5
e0
100
AcDbEntity
8
1
0
POLYLINE
5
e1
100
AcDbEntity
8
1
6
CONTINUOUS
62
5
100
AcDb2dPolyline
66
1
10
0.0
20
0.0
30
0.0
70
0
0
VERTEX
5
e2
100
AcDbEntity
8
1
100
AcDbVertex
100
AcDb2dVertex
62
5
10
181.000000
20
335.562500
0
VERTEX
5
e3
100
AcDbEntity
8
1
100
AcDbVertex
100
AcDb2dVertex
62
5
10
186.250000
20
336.187500
0
VERTEX
5
e4
100
AcDbEntity
8
1
100
AcDbVertex
100
AcDb2dVertex
62
5
10
186.250000
20
335.875000
0
VERTEX
5
e5
100
AcDbEntity
8
1
100
AcDbVertex
100
AcDb2dVertex
62
5
10
185.000000
20
334.312500
0
SEQEND
5
e6
100
AcDbEntity
8
1
0
POLYLINE
5
e7
100
AcDbEntity
8
1
6
CONTINUOUS
62
5
100
AcDb2dPolyline
66
1
10
0.0
20
0.0
30
0.0
70
0
0
VERTEX
5
e8
100
AcDbEntity
8
1
100
AcDbVertex
100
AcDb2dVertex
62
5
10
183.000000
20
338.375000
0
VERTEX
5
e9
100
AcDbEntity
8
1
100
AcDbVertex
100
AcDb2dVertex
62
5
10
183.000000
20
332.437500
0
VERTEX
5
ea
100
AcDbEntity
8
1
100
AcDbVertex
100
AcDb2dVertex
62
5
10
183.500000
20
331.812500
0
VERTEX
5
eb
100
AcDbEntity
8
1
100
AcDbVertex
100
AcDb2dVertex
62
5
10
186.250000
20
331.812500
0
SEQEND
5
ec
100
AcDbEntity
8
1
0
POLYLINE
5
ed
100
AcDbEntity
8
1
6
CONTINUOUS
62
5
100
AcDb2dPolyline
66
1
10
0.0
20
0.0
30
0.0
70
0
0
VERTEX
5
ee
100
AcDbEntity
8
1
100
AcDbVertex
100
AcDb2dVertex
62
5
10
199.250000
20
336.187500
0
VERTEX
5
ef
100
AcDbEntity
8
1
100
AcDbVertex
100
AcDb2dVertex
62
5
10
199.500000
20
336.187500
0
VERTEX
5
f0
100
AcDbEntity
8
1
100
AcDbVertex
100
AcDb2dVertex
62
5
10
201.250000
20
334.937500
0
SEQEND
5
f1
100
AcDbEntity
8
1
0
LINE
5
f2
100
AcDbEntity
8
1
100
AcDbLine
6
CONTINUOUS
62
5
10
199.250000
20
339.000000
11
199.250000
21
331.500000
0
LINE
5
f3
100
AcDbEntity
8
1
100
AcDbLine
6
CONTINUOUS
62
5
10
214.250000
20
339.312500
11
213.250000
21
337.750000
0
LINE
5
f4
100
AcDbEntity
8
1
100
AcDbLine
6
CONTINUOUS
62
5
10
213.000000
20
338.062500
11
214.000000
21
336.812500
0
LINE
5
f5
100
AcDbEntity
8
1
100
AcDbLine
6
CONTINUOUS
62
5
10
214.750000
20
338.062500
11
213.000000
21
335.250000
0
LINE
5
f6
100
AcDbEntity
8
1
100
AcDbLine
6
CONTINUOUS
62
5
10
212.500000
20
335.250000
11
214.750000
21
335.250000
0
LINE
5
f7
100
AcDbEntity
8
1
100
AcDbLine
6
CONTINUOUS
62
5
10
214.500000
20
335.875000
11
215.000000
21
334.625000
0
LINE
5
f8
100
AcDbEntity
8
1
100
AcDbLine
6
CONTINUOUS
62
5
10
213.750000
20
335.250000
11
213.750000
21
330.875000
0
LINE
5
f9
100
AcDbEntity
8
1
100
AcDbLine
6
CONTINUOUS
62
5
10
213.000000
20
334.000000
11
212.750000
21
332.125000
0
LINE
5
fa
100
AcDbEntity
8
1
100
AcDbLine
6
CONTINUOUS
62
5
10
214.500000
20
334.000000
11
214.750000
21
332.750000
0
POLYLINE
5
fb
100
AcDbEntity
8
1
6
CONTINUOUS
62
5
100
AcDb2dPolyline
66
1
10
0.0
20
0.0
30
0.0
70
0
0
VERTEX
5
fc
100
AcDbEntity
8
1
100
AcDbVertex
100
AcDb2dVertex
62
5
10
216.750000
20
339.312500
0
VERTEX
5
fd
100
AcDbEntity
8
1
100
AcDbVertex
100
AcDb2dVertex
62
5
10
216.250000
20
338.062500
0
VERTEX
5
fe
100
AcDbEntity
8
1
100
AcDbVertex
100
AcDb2dVertex
62
5
10
215.250000
20
336.500000
0
SEQEND
5
ff
100
AcDbEntity
8
1
0
POLYLINE
5
100
100
AcDbEntity
8
1
6
CONTINUOUS
62
5
100
AcDb2dPolyline
66
1
10
0.0
20
0.0
30
0.0
70
0
0
VERTEX
5
101
100
AcDbEntity
8
1
100
AcDbVertex
100
AcDb2dVertex
62
5
10
216.250000
20
338.062500
0
VERTEX
5
102
100
AcDbEntity
8
1
100
AcDbVertex
100
AcDb2dVertex
62
5
10
218.000000
20
338.062500
0
VERTEX
5
103
100
AcDbEntity
8
1
100
AcDbVertex
100
AcDb2dVertex
62
5
10
217.250000
20
336.187500
0
SEQEND
5
104
100
AcDbEntity
8
1
0
POLYLINE
5
105
100
AcDbEntity
8
1
6
CONTINUOUS
62
5
100
AcDb2dPolyline
66
1
10
0.0
20
0.0
30
0.0
70
0
0
VERTEX
5
106
100
AcDbEntity
8
1
100
AcDbVertex
100
AcDb2dVertex
62
5
10
215.500000
20
336.187500
0
VERTEX
5
107
100
AcDbEntity
8
1
100
AcDbVertex
100
AcDb2dVertex
62
5
10
219.000000
20
336.187500
0
VERTEX
5
108
100
AcDbEntity
8
1
100
AcDbVertex
100
AcDb2dVertex
62
5
10
219.000000
20
334.000000
0
VERTEX
5
109
100
AcDbEntity
8
1
100
AcDbVertex
100
AcDb2dVertex
62
5
10
215.500000
20
334.000000
0
SEQEND
5
10a
100
AcDbEntity
8
1
0
POLYLINE
5
10b
100
AcDbEntity
8
1
6
CONTINUOUS
62
5
100
AcDb2dPolyline
66
1
10
0.0
20
0.0
30
0.0
70
0
0
VERTEX
5
10c
100
AcDbEntity
8
1
100
AcDbVertex
100
AcDb2dVertex
62
5
10
215.500000
20
336.187500
0
VERTEX
5
10d
100
AcDbEntity
8
1
100
AcDbVertex
100
AcDb2dVertex
62
5
10
215.500000
20
331.500000
0
VERTEX
5
10e
100
AcDbEntity
8
1
100
AcDbVertex
100
AcDb2dVertex
62
5
10
215.750000
20
331.187500
0
VERTEX
5
10f
100
AcDbEntity
8
1
100
AcDbVertex
100
AcDb2dVertex
62
5
10
219.250000
20
331.187500
0
VERTEX
5
110
100
AcDbEntity
8
1
100
AcDbVertex
100
AcDb2dVertex
62
5
10
219.250000
20
332.125000
0
SEQEND
5
111
100
AcDbEntity
8
1
0
LINE
5
112
100
AcDbEntity
8
1
100
AcDbLine
6
CONTINUOUS
62
5
10
217.250000
20
336.187500
11
217.250000
21
334.000000
0
POLYLINE
5
113
100
AcDbEntity
8
1
6
CONTINUOUS
62
5
100
AcDb2dPolyline
66
1
10
0.0
20
0.0
30
0.0
70
0
0
VERTEX
5
114
100
AcDbEntity
8
1
100
AcDbVertex
100
AcDb2dVertex
62
5
10
254.500000
20
339.312500
0
VERTEX
5
115
100
AcDbEntity
8
1
100
AcDbVertex
100
AcDb2dVertex
62
5
10
253.500000
20
336.500000
0
VERTEX
5
116
100
AcDbEntity
8
1
100
AcDbVertex
100
AcDb2dVertex
62
5
10
252.250000
20
334.312500
0
SEQEND
5
117
100
AcDbEntity
8
1
0
LINE
5
118
100
AcDbEntity
8
1
100
AcDbLine
6
CONTINUOUS
62
5
10
253.500000
20
336.500000
11
253.500000
21
330.562500
0
LINE
5
119
100
AcDbEntity
8
1
100
AcDbLine
6
CONTINUOUS
62
5
10
254.250000
20
336.500000
11
259.500000
21
336.500000
0
POLYLINE
5
11a
100
AcDbEntity
8
1
6
CONTINUOUS
62
5
100
AcDb2dPolyline
66
1
10
0.0
20
0.0
30
0.0
70
0
0
VERTEX
5
11b
100
AcDbEntity
8
1
100
AcDbVertex
100
AcDb2dVertex
62
5
10
257.750000
20
339.312500
0
VERTEX
5
11c
100
AcDbEntity
8
1
100
AcDbVertex
100
AcDb2dVertex
62
5
10
257.750000
20
330.875000
0
VERTEX
5
11d
100
AcDbEntity
8
1
100
AcDbVertex
100
AcDb2dVertex
62
5
10
256.250000
20
331.187500
0
SEQEND
5
11e
100
AcDbEntity
8
1
0
LINE
5
11f
100
AcDbEntity
8
1
100
AcDbLine
6
CONTINUOUS
62
5
10
255.250000
20
335.250000
11
256.250000
21
333.375000
0
POLYLINE
5
120
100
AcDbEntity
8
1
6
DOT2
62
5
100
AcDb2dPolyline
66
1
10
0.0
20
0.0
30
0.0
70
0
0
VERTEX
5
121
100
AcDbEntity
8
1
100
AcDbVertex
100
AcDb2dVertex
62
5
10
263.574997
20
245.687500
0
VERTEX
5
122
100
AcDbEntity
8
1
100
AcDbVertex
100
AcDb2dVertex
62
5
10
263.574997
20
245.687500
0
VERTEX
5
123
100
AcDbEntity
8
1
100
AcDbVertex
100
AcDb2dVertex
62
5
10
262.324997
20
245.375000
0
VERTEX
5
124
100
AcDbEntity
8
1
100
AcDbVertex
100
AcDb2dVertex
62
5
10
261.387497
20
245.375000
0
VERTEX
5
125
100
AcDbEntity
8
1
100
AcDbVertex
100
AcDb2dVertex
62
5
10
260.762497
20
245.687500
0
VERTEX
5
126
100
AcDbEntity
8
1
100
AcDbVertex
100
AcDb2dVertex
62
5
10
260.449997
20
246.625000
0
VERTEX
5
127
100
AcDbEntity
8
1
100
AcDbVertex
100
AcDb2dVertex
62
5
10
260.449997
20
248.187500
0
VERTEX
5
128
100
AcDbEntity
8
1
100
AcDbVertex
100
AcDb2dVertex
62
5
10
260.762497
20
249.125000
0
VERTEX
5
129
100
AcDbEntity
8
1
100
AcDbVertex
100
AcDb2dVertex
62
5
10
261.074997
20
249.437500
0
VERTEX
5
12a
100
AcDbEntity
8
1
100
AcDbVertex
100
AcDb2dVertex
62
5
10
261.699997
20
249.750000
0
VERTEX
5
12b
100
AcDbEntity
8
1
100
AcDbVertex
100
AcDb2dVertex
62
5
10
262.324997
20
249.750000
0
VERTEX
5
12c
100
AcDbEntity
8
1
100
AcDbVertex
100
AcDb2dVertex
62
5
10
262.949997
20
249.437500
0
VERTEX
5
12d
100
AcDbEntity
8
1
100
AcDbVertex
100
AcDb2dVertex
62
5
10
263.262497
20
249.125000
0
VERTEX
5
12e
100
AcDbEntity
8
1
100
AcDbVertex
100
AcDb2dVertex
62
5
10
263.574997
20
248.187500
0
VERTEX
5
12f
100
AcDbEntity
8
1
100
AcDbVertex
100
AcDb2dVertex
62
5
10
263.574997
20
244.750000
0
VERTEX
5
130
100
AcDbEntity
8
1
100
AcDbVertex
100
AcDb2dVertex
62
5
10
263.262497
20
243.187500
0
VERTEX
5
131
100
AcDbEntity
8
1
100
AcDbVertex
100
AcDb2dVertex
62
5
10
262.637497
20
242.562500
0
VERTEX
5
132
100
AcDbEntity
8
1
100
AcDbVertex
100
AcDb2dVertex
62
5
10
261.699997
20
242.250000
0
VERTEX
5
133
100
AcDbEntity
8
1
100
AcDbVertex
100
AcDb2dVertex
62
5
10
261.074997
20
242.250000
0
SEQEND
5
134
100
AcDbEntity
8
1
0
POLYLINE
5
135
100
AcDbEntity
8
1
6
DOT2
62
5
100
AcDb2dPolyline
66
1
10
0.0
20
0.0
30
0.0
70
0
0
VERTEX
5
136
100
AcDbEntity
8
1
100
AcDbVertex
100
AcDb2dVertex
62
5
10
246.074997
20
249.125000
0
VERTEX
5
137
100
AcDbEntity
8
1
100
AcDbVertex
100
AcDb2dVertex
62
5
10
247.012497
20
249.750000
0
VERTEX
5
138
100
AcDbEntity
8
1
100
AcDbVertex
100
AcDb2dVertex
62
5
10
247.012497
20
242.250000
0
SEQEND
5
139
100
AcDbEntity
8
1
0
LINE
5
13a
100
AcDbEntity
8
1
100
AcDbLine
6
DOT2
62
5
10
246.387497
20
242.250000
11
247.637497
21
242.250000
0
POLYLINE
5
13b
100
AcDbEntity
8
1
6
DOT2
62
5
100
AcDb2dPolyline
66
1
10
0.0
20
0.0
30
0.0
70
0
0
VERTEX
5
13c
100
AcDbEntity
8
1
100
AcDbVertex
100
AcDb2dVertex
62
5
10
252.949997
20
249.750000
0
VERTEX
5
13d
100
AcDbEntity
8
1
100
AcDbVertex
100
AcDb2dVertex
62
5
10
252.012497
20
249.750000
0
VERTEX
5
13e
100
AcDbEntity
8
1
100
AcDbVertex
100
AcDb2dVertex
62
5
10
251.074997
20
249.437500
0
VERTEX
5
13f
100
AcDbEntity
8
1
100
AcDbVertex
100
AcDb2dVertex
62
5
10
250.449997
20
248.187500
0
VERTEX
5
140
100
AcDbEntity
8
1
100
AcDbVertex
100
AcDb2dVertex
62
5
10
250.449997
20
243.812500
0
VERTEX
5
141
100
AcDbEntity
8
1
100
AcDbVertex
100
AcDb2dVertex
62
5
10
250.762497
20
242.875000
0
VERTEX
5
142
100
AcDbEntity
8
1
100
AcDbVertex
100
AcDb2dVertex
62
5
10
251.074997
20
242.562500
0
VERTEX
5
143
100
AcDbEntity
8
1
100
AcDbVertex
100
AcDb2dVertex
62
5
10
251.699997
20
242.250000
0
VERTEX
5
144
100
AcDbEntity
8
1
100
AcDbVertex
100
AcDb2dVertex
62
5
10
252.324997
20
242.250000
0
VERTEX
5
145
100
AcDbEntity
8
1
100
AcDbVertex
100
AcDb2dVertex
62
5
10
252.949997
20
242.562500
0
VERTEX
5
146
100
AcDbEntity
8
1
100
AcDbVertex
100
AcDb2dVertex
62
5
10
253.262497
20
242.875000
0
VERTEX
5
147
100
AcDbEntity
8
1
100
AcDbVertex
100
AcDb2dVertex
62
5
10
253.574997
20
243.812500
0
VERTEX
5
148
100
AcDbEntity
8
1
100
AcDbVertex
100
AcDb2dVertex
62
5
10
253.574997
20
245.687500
0
VERTEX
5
149
100
AcDbEntity
8
1
100
AcDbVertex
100
AcDb2dVertex
62
5
10
253.262497
20
246.312500
0
VERTEX
5
14a
100
AcDbEntity
8
1
100
AcDbVertex
100
AcDb2dVertex
62
5
10
252.637497
20
246.625000
0
VERTEX
5
14b
100
AcDbEntity
8
1
100
AcDbVertex
100
AcDb2dVertex
62
5
10
251.387497
20
246.625000
0
VERTEX
5
14c
100
AcDbEntity
8
1
100
AcDbVertex
100
AcDb2dVertex
62
5
10
250.449997
20
246.312500
0
SEQEND
5
14d
100
AcDbEntity
8
1
0
POLYLINE
5
14e
100
AcDbEntity
8
1
6
DOT2
62
5
100
AcDb2dPolyline
66
1
10
0.0
20
0.0
30
0.0
70
1
0
VERTEX
5
14f
100
AcDbEntity
8
1
100
AcDbVertex
100
AcDb2dVertex
62
5
10
196.799997
20
249.750000
0
VERTEX
5
150
100
AcDbEntity
8
1
100
AcDbVertex
100
AcDb2dVertex
62
5
10
197.424997
20
249.750000
0
VERTEX
5
151
100
AcDbEntity
8
1
100
AcDbVertex
100
AcDb2dVertex
62
5
10
198.049997
20
249.437500
0
VERTEX
5
152
100
AcDbEntity
8
1
100
AcDbVertex
100
AcDb2dVertex
62
5
10
198.362497
20
248.812500
0
VERTEX
5
153
100
AcDbEntity
8
1
100
AcDbVertex
100
AcDb2dVertex
62
5
10
198.362497
20
247.562500
0
VERTEX
5
154
100
AcDbEntity
8
1
100
AcDbVertex
100
AcDb2dVertex
62
5
10
198.049997
20
246.937500
0
VERTEX
5
155
100
AcDbEntity
8
1
100
AcDbVertex
100
AcDb2dVertex
62
5
10
196.174997
20
245.687500
0
VERTEX
5
156
100
AcDbEntity
8
1
100
AcDbVertex
100
AcDb2dVertex
62
5
10
195.549997
20
244.750000
0
VERTEX
5
157
100
AcDbEntity
8
1
100
AcDbVertex
100
AcDb2dVertex
62
5
10
195.549997
20
243.500000
0
VERTEX
5
158
100
AcDbEntity
8
1
100
AcDbVertex
100
AcDb2dVertex
62
5
10
195.862497
20
242.875000
0
VERTEX
5
159
100
AcDbEntity
8
1
100
AcDbVertex
100
AcDb2dVertex
62
5
10
196.174997
20
242.562500
0
VERTEX
5
15a
100
AcDbEntity
8
1
100
AcDbVertex
100
AcDb2dVertex
62
5
10
196.799997
20
242.250000
0
VERTEX
5
15b
100
AcDbEntity
8
1
100
AcDbVertex
100
AcDb2dVertex
62
5
10
197.424997
20
242.250000
0
VERTEX
5
15c
100
AcDbEntity
8
1
100
AcDbVertex
100
AcDb2dVertex
62
5
10
198.049997
20
242.562500
0
VERTEX
5
15d
100
AcDbEntity
8
1
100
AcDbVertex
100
AcDb2dVertex
62
5
10
198.362497
20
242.875000
0
VERTEX
5
15e
100
AcDbEntity
8
1
100
AcDbVertex
100
AcDb2dVertex
62
5
10
198.674997
20
243.500000
0
VERTEX
5
15f
100
AcDbEntity
8
1
100
AcDbVertex
100
AcDb2dVertex
62
5
10
198.674997
20
244.750000
0
VERTEX
5
160
100
AcDbEntity
8
1
100
AcDbVertex
100
AcDb2dVertex
62
5
10
198.049997
20
245.687500
0
VERTEX
5
161
100
AcDbEntity
8
1
100
AcDbVertex
100
AcDb2dVertex
62
5
10
196.174997
20
246.937500
0
VERTEX
5
162
100
AcDbEntity
8
1
100
AcDbVertex
100
AcDb2dVertex
62
5
10
195.862497
20
247.562500
0
VERTEX
5
163
100
AcDbEntity
8
1
100
AcDbVertex
100
AcDb2dVertex
62
5
10
195.862497
20
248.812500
0
VERTEX
5
164
100
AcDbEntity
8
1
100
AcDbVertex
100
AcDb2dVertex
62
5
10
196.174997
20
249.437500
0
VERTEX
5
165
100
AcDbEntity
8
1
100
AcDbVertex
100
AcDb2dVertex
62
5
10
196.799997
20
249.750000
0
SEQEND
5
166
100
AcDbEntity
8
1
0
ARC
5
167
100
AcDbEntity
8
1
100
AcDbCircle
6
CONTINUOUS
62
5
10
216.650007
20
213.749984
40
0.500000
100
AcDbArc
50
-179.999998
51
-89.999999
0
LINE
5
168
100
AcDbEntity
8
1
100
AcDbLine
6
CONTINUOUS
62
5
10
216.150007
20
213.749984
11
216.150007
21
215.499983
0
ARC
5
169
100
AcDbEntity
8
1
100
AcDbCircle
6
CONTINUOUS
62
5
10
216.650007
20
215.499983
40
0.500000
100
AcDbArc
50
89.999999
51
179.999998
0
ARC
5
16a
100
AcDbEntity
8
1
100
AcDbCircle
6
CONTINUOUS
62
5
10
216.350004
20
213.749984
40
0.500000
100
AcDbArc
50
179.999998
51
-89.999999
0
LINE
5
16b
100
AcDbEntity
8
1
100
AcDbLine
6
CONTINUOUS
62
5
10
217.350007
20
213.249984
11
216.350004
21
213.249984
0
ARC
5
16c
100
AcDbEntity
8
1
100
AcDbCircle
6
CONTINUOUS
62
5
10
216.350004
20
209.499985
40
0.500000
100
AcDbArc
50
179.999998
51
-89.999999
0
LINE
5
16d
100
AcDbEntity
8
1
100
AcDbLine
6
CONTINUOUS
62
5
10
215.850004
20
209.499985
11
215.850004
21
215.499983
0
ARC
5
16e
100
AcDbEntity
8
1
100
AcDbCircle
6
CONTINUOUS
62
5
10
216.350004
20
215.499983
40
0.500000
100
AcDbArc
50
161.564972
51
-179.999998
0
LINE
5
16f
100
AcDbEntity
8
1
100
AcDbLine
6
CONTINUOUS
62
5
10
217.350007
20
208.999985
11
216.350004
21
208.999985
0
LINE
5
170
100
AcDbEntity
8
1
100
AcDbLine
6
CONTINUOUS
62
5
10
214.750005
20
206.149986
11
215.000005
21
205.899986
0
ARC
5
171
100
AcDbEntity
8
1
100
AcDbCircle
6
CONTINUOUS
62
5
10
215.250005
20
208.499985
40
0.500000
100
AcDbArc
50
89.999999
51
-179.999998
0
POLYLINE
5
172
100
AcDbEntity
8
1
6
CONTINUOUS
62
5
100
AcDb2dPolyline
66
1
10
0.0
20
0.0
30
0.0
70
0
0
VERTEX
5
173
100
AcDbEntity
8
1
100
AcDbVertex
100
AcDb2dVertex
62
5
10
215.250005
20
208.999985
0
VERTEX
5
174
100
AcDbEntity
8
1
100
AcDbVertex
100
AcDb2dVertex
62
5
10
215.850004
20
208.999985
0
VERTEX
5
175
100
AcDbEntity
8
1
100
AcDbVertex
100
AcDb2dVertex
62
5
10
215.850004
20
209.499985
0
SEQEND
5
176
100
AcDbEntity
8
1
0
ARC
5
177
100
AcDbEntity
8
1
100
AcDbCircle
6
CONTINUOUS
62
5
10
213.850005
20
199.499988
40
0.500000
100
AcDbArc
50
89.999999
51
179.999998
0
LINE
5
178
100
AcDbEntity
8
1
100
AcDbLine
6
CONTINUOUS
62
5
10
214.650005
20
199.999988
11
213.850005
21
199.999988
0
ARC
5
179
100
AcDbEntity
8
1
100
AcDbCircle
6
CONTINUOUS
62
5
10
226.632483
20
185.505505
40
1.600000
100
AcDbArc
50
64.499999
51
83.565383
0
LINE
5
17a
100
AcDbEntity
8
1
100
AcDbLine
6
CONTINUOUS
62
5
10
227.321301
20
186.949641
11
227.981373
21
186.634803
0
ARC
5
17b
100
AcDbEntity
8
1
100
AcDbCircle
6
CONTINUOUS
62
5
10
227.766118
20
186.183510
40
0.500000
100
AcDbArc
50
-25.500000
51
64.499999
0
LINE
5
17c
100
AcDbEntity
8
1
100
AcDbLine
6
CONTINUOUS
62
5
10
228.217410
20
185.968255
11
227.052757
21
183.526508
0
ARC
5
17d
100
AcDbEntity
8
1
100
AcDbCircle
6
CONTINUOUS
62
5
10
225.969655
20
184.043122
40
1.200000
100
AcDbArc
50
-92.530341
51
-25.500000
0
LINE
5
17e
100
AcDbEntity
8
1
100
AcDbLine
6
CONTINUOUS
62
5
10
225.916677
20
182.844292
11
224.999997
21
182.884801
0
LINE
5
17f
100
AcDbEntity
8
1
100
AcDbLine
6
CONTINUOUS
62
5
10
224.850007
20
187.316675
11
226.811794
21
187.095425
0
ARC
5
180
100
AcDbEntity
8
1
100
AcDbCircle
6
CONTINUOUS
62
5
10
224.499997
20
193.412361
40
0.500000
100
AcDbArc
50
0.000000
51
45.571290
0
POLYLINE
5
181
100
AcDbEntity
8
1
6
CONTINUOUS
62
5
100
AcDb2dPolyline
66
1
10
0.0
20
0.0
30
0.0
70
0
0
VERTEX
5
182
100
AcDbEntity
8
1
100
AcDbVertex
100
AcDb2dVertex
62
5
10
224.999997
20
193.412361
0
VERTEX
5
183
100
AcDbEntity
8
1
100
AcDbVertex
100
AcDb2dVertex
62
5
10
224.999997
20
192.200017
0
VERTEX
5
184
100
AcDbEntity
8
1
100
AcDbVertex
100
AcDb2dVertex
62
5
10
224.850007
20
191.885039
0
SEQEND
5
185
100
AcDbEntity
8
1
0
ARC
5
186
100
AcDbEntity
8
1
100
AcDbCircle
6
CONTINUOUS
62
5
10
226.499997
20
192.813921
40
0.500000
100
AcDbArc
50
-85.710846
51
0.000000
0
LINE
5
187
100
AcDbEntity
8
1
100
AcDbLine
6
CONTINUOUS
62
5
10
226.999997
20
192.813921
11
226.999997
21
193.362361
0
ARC
5
188
100
AcDbEntity
8
1
100
AcDbCircle
6
CONTINUOUS
62
5
10
226.499997
20
193.362361
40
0.500000
100
AcDbArc
50
0.000000
51
88.567903
0
LINE
5
189
100
AcDbEntity
8
1
100
AcDbLine
6
CONTINUOUS
62
5
10
224.999997
20
192.200017
11
226.537392
21
192.315321
0
LINE
5
18a
100
AcDbEntity
8
1
100
AcDbLine
6
CONTINUOUS
62
5
10
218.999997
20
188.249993
11
218.999997
21
190.799991
0
LINE
5
18b
100
AcDbEntity
8
1
100
AcDbLine
6
CONTINUOUS
62
5
10
217.999997
20
191.999990
11
217.999997
21
191.300000
0
LINE
5
18c
100
AcDbEntity
8
1
100
AcDbLine
6
CONTINUOUS
62
5
10
217.199997
20
188.400017
11
217.999997
21
188.400017
0
LINE
5
18d
100
AcDbEntity
8
1
100
AcDbLine
6
CONTINUOUS
62
5
10
217.149997
20
190.500017
11
217.199997
21
190.500017
0
ARC
5
18e
100
AcDbEntity
8
1
100
AcDbCircle
6
CONTINUOUS
62
5
10
216.199997
20
189.999999
40
1.000000
100
AcDbArc
50
-18.194872
51
18.194872
0
LINE
5
18f
100
AcDbEntity
8
1
100
AcDbLine
6
CONTINUOUS
62
5
10
217.199997
20
191.200017
11
217.999997
21
191.200017
0
LINE
5
190
100
AcDbEntity
8
1
100
AcDbLine
6
CONTINUOUS
62
5
10
217.199997
20
191.999990
11
217.199997
21
188.249993
0
POLYLINE
5
191
100
AcDbEntity
8
1
6
CONTINUOUS
62
5
100
AcDb2dPolyline
66
1
10
0.0
20
0.0
30
0.0
70
0
0
VERTEX
5
192
100
AcDbEntity
8
1
100
AcDbVertex
100
AcDb2dVertex
62
5
10
217.999997
20
188.249993
0
VERTEX
5
193
100
AcDbEntity
8
1
100
AcDbVertex
100
AcDb2dVertex
62
5
10
217.999997
20
191.300000
0
VERTEX
5
194
100
AcDbEntity
8
1
100
AcDbVertex
100
AcDb2dVertex
62
5
10
217.149997
20
191.300000
0
SEQEND
5
195
100
AcDbEntity
8
1
0
LINE
5
196
100
AcDbEntity
8
1
100
AcDbLine
6
CONTINUOUS
62
5
10
217.149997
20
188.249993
11
217.149997
21
191.999990
0
ARC
5
197
100
AcDbEntity
8
1
100
AcDbCircle
6
CONTINUOUS
62
5
10
218.199997
20
190.599991
40
0.200000
100
AcDbArc
50
89.999999
51
-179.999998
0
LINE
5
198
100
AcDbEntity
8
1
100
AcDbLine
6
CONTINUOUS
62
5
10
218.199997
20
190.799991
11
220.649997
21
190.799991
0
ARC
5
199
100
AcDbEntity
8
1
100
AcDbCircle
6
CONTINUOUS
62
5
10
220.649997
20
191.299991
40
0.500000
100
AcDbArc
50
-89.999993
51
-0.000000
0
LINE
5
19a
100
AcDbEntity
8
1
100
AcDbLine
6
CONTINUOUS
62
5
10
221.149997
20
191.299991
11
221.149997
21
191.499991
0
ARC
5
19b
100
AcDbEntity
8
1
100
AcDbCircle
6
CONTINUOUS
62
5
10
220.649997
20
191.499991
40
0.500000
100
AcDbArc
50
0.000000
51
89.933642
0
ARC
5
19c
100
AcDbEntity
8
1
100
AcDbCircle
6
CONTINUOUS
62
5
10
222.436781
20
195.247740
40
0.500000
100
AcDbArc
50
64.758715
51
84.259946
0
LINE
5
19d
100
AcDbEntity
8
1
100
AcDbLine
6
CONTINUOUS
62
5
10
217.350007
20
196.361921
11
222.486789
21
195.745233
0
ARC
5
19e
100
AcDbEntity
8
1
100
AcDbCircle
6
CONTINUOUS
62
5
10
214.350005
20
201.499988
40
1.000000
100
AcDbArc
50
89.999999
51
179.999998
0
ARC
5
19f
100
AcDbEntity
8
1
100
AcDbCircle
6
CONTINUOUS
62
5
10
213.850005
20
201.999987
40
0.500000
100
AcDbArc
50
89.999999
51
-179.999998
0
LINE
5
1a0
100
AcDbEntity
8
1
100
AcDbLine
6
CONTINUOUS
62
5
10
217.350007
20
202.499987
11
213.850005
21
202.499987
0
LINE
5
1a1
100
AcDbEntity
8
1
100
AcDbLine
6
CONTINUOUS
62
5
10
209.299997
20
195.150017
11
209.299997
21
243.000000
0
LINE
5
1a2
100
AcDbEntity
8
1
100
AcDbLine
6
CONTINUOUS
62
5
10
217.350007
20
217.499983
11
217.350007
21
243.000000
0
POLYLINE
5
1a3
100
AcDbEntity
8
1
6
CONTINUOUS
62
5
100
AcDb2dPolyline
66
1
10
0.0
20
0.0
30
0.0
70
0
0
VERTEX
5
1a4
100
AcDbEntity
8
1
100
AcDbVertex
100
AcDb2dVertex
62
5
10
193.049997
20
241.000000
0
VERTEX
5
1a5
100
AcDbEntity
8
1
100
AcDbVertex
100
AcDb2dVertex
62
5
10
209.299997
20
241.000000
0
VERTEX
5
1a6
100
AcDbEntity
8
1
100
AcDbVertex
100
AcDb2dVertex
62
5
10
203.299997
20
240.000000
0
VERTEX
5
1a7
100
AcDbEntity
8
1
100
AcDbVertex
100
AcDb2dVertex
62
5
10
203.299997
20
242.000000
0
VERTEX
5
1a8
100
AcDbEntity
8
1
100
AcDbVertex
100
AcDb2dVertex
62
5
10
209.299997
20
241.000000
0
VERTEX
5
1a9
100
AcDbEntity
8
1
100
AcDbVertex
100
AcDb2dVertex
62
5
10
203.299997
20
240.500000
0
VERTEX
5
1aa
100
AcDbEntity
8
1
100
AcDbVertex
100
AcDb2dVertex
62
5
10
203.299997
20
241.500000
0
VERTEX
5
1ab
100
AcDbEntity
8
1
100
AcDbVertex
100
AcDb2dVertex
62
5
10
209.299997
20
241.000000
0
SEQEND
5
1ac
100
AcDbEntity
8
1
0
LINE
5
1ad
100
AcDbEntity
8
1
100
AcDbLine
6
CONTINUOUS
62
5
10
209.299997
20
241.000000
11
217.350007
21
241.000000
0
LINE
5
1ae
100
AcDbEntity
8
1
100
AcDbLine
6
CONTINUOUS
62
5
10
222.350007
20
241.000000
11
217.350007
21
241.000000
0
POLYLINE
5
1af
100
AcDbEntity
8
1
6
CONTINUOUS
62
5
100
AcDb2dPolyline
66
1
10
0.0
20
0.0
30
0.0
70
0
0
VERTEX
5
1b0
100
AcDbEntity
8
1
100
AcDbVertex
100
AcDb2dVertex
62
5
10
216.350007
20
240.500000
0
VERTEX
5
1b1
100
AcDbEntity
8
1
100
AcDbVertex
100
AcDb2dVertex
62
5
10
216.350007
20
241.500000
0
VERTEX
5
1b2
100
AcDbEntity
8
1
100
AcDbVertex
100
AcDb2dVertex
62
5
10
216.850007
20
242.000000
0
VERTEX
5
1b3
100
AcDbEntity
8
1
100
AcDbVertex
100
AcDb2dVertex
62
5
10
217.850007
20
242.000000
0
VERTEX
5
1b4
100
AcDbEntity
8
1
100
AcDbVertex
100
AcDb2dVertex
62
5
10
218.350007
20
241.500000
0
VERTEX
5
1b5
100
AcDbEntity
8
1
100
AcDbVertex
100
AcDb2dVertex
62
5
10
218.350007
20
240.500000
0
VERTEX
5
1b6
100
AcDbEntity
8
1
100
AcDbVertex
100
AcDb2dVertex
62
5
10
217.850007
20
240.000000
0
VERTEX
5
1b7
100
AcDbEntity
8
1
100
AcDbVertex
100
AcDb2dVertex
62
5
10
216.850007
20
240.000000
0
VERTEX
5
1b8
100
AcDbEntity
8
1
100
AcDbVertex
100
AcDb2dVertex
62
5
10
216.350007
20
240.500000
0
VERTEX
5
1b9
100
AcDbEntity
8
1
100
AcDbVertex
100
AcDb2dVertex
62
5
10
218.350007
20
241.500000
0
SEQEND
5
1ba
100
AcDbEntity
8
1
0
LINE
5
1bb
100
AcDbEntity
8
1
100
AcDbLine
6
CONTINUOUS
62
5
10
218.350007
20
240.500000
11
216.350007
21
241.500000
0
LINE
5
1bc
100
AcDbEntity
8
1
100
AcDbLine
6
CONTINUOUS
62
5
10
216.850007
20
242.000000
11
217.850007
21
240.000000
0
LINE
5
1bd
100
AcDbEntity
8
1
100
AcDbLine
6
CONTINUOUS
62
5
10
216.850007
20
240.000000
11
217.850007
21
242.000000
0
LINE
5
1be
100
AcDbEntity
8
1
100
AcDbLine
6
DOT2
62
5
10
256.074997
20
242.875000
11
255.449997
21
242.250000
0
POLYLINE
5
1bf
100
AcDbEntity
8
1
6
DOT2
62
5
100
AcDb2dPolyline
66
1
10
0.0
20
0.0
30
0.0
70
0
0
VERTEX
5
1c0
100
AcDbEntity
8
1
100
AcDbVertex
100
AcDb2dVertex
62
5
10
255.449997
20
242.875000
0
VERTEX
5
1c1
100
AcDbEntity
8
1
100
AcDbVertex
100
AcDb2dVertex
62
5
10
256.074997
20
242.250000
0
VERTEX
5
1c2
100
AcDbEntity
8
1
100
AcDbVertex
100
AcDb2dVertex
62
5
10
255.449997
20
242.250000
0
VERTEX
5
1c3
100
AcDbEntity
8
1
100
AcDbVertex
100
AcDb2dVertex
62
5
10
255.449997
20
242.875000
0
VERTEX
5
1c4
100
AcDbEntity
8
1
100
AcDbVertex
100
AcDb2dVertex
62
5
10
256.074997
20
242.875000
0
VERTEX
5
1c5
100
AcDbEntity
8
1
100
AcDbVertex
100
AcDb2dVertex
62
5
10
256.074997
20
242.250000
0
SEQEND
5
1c6
100
AcDbEntity
8
1
0
POLYLINE
5
1c7
100
AcDbEntity
8
1
6
CONTINUOUS
62
5
100
AcDb2dPolyline
66
1
10
0.0
20
0.0
30
0.0
70
0
0
VERTEX
5
1c8
100
AcDbEntity
8
1
100
AcDbVertex
100
AcDb2dVertex
62
5
10
135.250000
20
329.625000
0
VERTEX
5
1c9
100
AcDbEntity
8
1
100
AcDbVertex
100
AcDb2dVertex
62
5
10
134.500000
20
328.375000
0
VERTEX
5
1ca
100
AcDbEntity
8
1
100
AcDbVertex
100
AcDb2dVertex
62
5
10
133.750000
20
327.437500
0
VERTEX
5
1cb
100
AcDbEntity
8
1
100
AcDbVertex
100
AcDb2dVertex
62
5
10
132.750000
20
326.500000
0
SEQEND
5
1cc
100
AcDbEntity
8
1
0
POLYLINE
5
1cd
100
AcDbEntity
8
1
6
CONTINUOUS
62
5
100
AcDb2dPolyline
66
1
10
0.0
20
0.0
30
0.0
70
0
0
VERTEX
5
1ce
100
AcDbEntity
8
1
100
AcDbVertex
100
AcDb2dVertex
62
5
10
135.000000
20
329.000000
0
VERTEX
5
1cf
100
AcDbEntity
8
1
100
AcDbVertex
100
AcDb2dVertex
62
5
10
137.250000
20
329.000000
0
VERTEX
5
1d0
100
AcDbEntity
8
1
100
AcDbVertex
100
AcDb2dVertex
62
5
10
136.000000
20
327.125000
0
SEQEND
5
1d1
100
AcDbEntity
8
1
0
POLYLINE
5
1d2
100
AcDbEntity
8
1
6
CONTINUOUS
62
5
100
AcDb2dPolyline
66
1
10
0.0
20
0.0
30
0.0
70
0
0
VERTEX
5
1d3
100
AcDbEntity
8
1
100
AcDbVertex
100
AcDb2dVertex
62
5
10
133.750000
20
327.125000
0
VERTEX
5
1d4
100
AcDbEntity
8
1
100
AcDbVertex
100
AcDb2dVertex
62
5
10
138.250000
20
327.125000
0
VERTEX
5
1d5
100
AcDbEntity
8
1
100
AcDbVertex
100
AcDb2dVertex
62
5
10
138.250000
20
324.312500
0
VERTEX
5
1d6
100
AcDbEntity
8
1
100
AcDbVertex
100
AcDb2dVertex
62
5
10
133.750000
20
324.312500
0
SEQEND
5
1d7
100
AcDbEntity
8
1
0
LINE
5
1d8
100
AcDbEntity
8
1
100
AcDbLine
6
CONTINUOUS
62
5
10
136.000000
20
327.125000
11
136.000000
21
324.312500
0
POLYLINE
5
1d9
100
AcDbEntity
8
1
6
CONTINUOUS
62
5
100
AcDb2dPolyline
66
1
10
0.0
20
0.0
30
0.0
70
0
0
VERTEX
5
1da
100
AcDbEntity
8
1
100
AcDbVertex
100
AcDb2dVertex
62
5
10
133.750000
20
327.125000
0
VERTEX
5
1db
100
AcDbEntity
8
1
100
AcDbVertex
100
AcDb2dVertex
62
5
10
133.750000
20
321.812500
0
VERTEX
5
1dc
100
AcDbEntity
8
1
100
AcDbVertex
100
AcDb2dVertex
62
5
10
134.250000
20
321.187500
0
VERTEX
5
1dd
100
AcDbEntity
8
1
100
AcDbVertex
100
AcDb2dVertex
62
5
10
139.250000
20
321.187500
0
VERTEX
5
1de
100
AcDbEntity
8
1
100
AcDbVertex
100
AcDb2dVertex
62
5
10
139.250000
20
322.437500
0
SEQEND
5
1df
100
AcDbEntity
8
1
0
LINE
5
1e0
100
AcDbEntity
8
1
100
AcDbLine
6
CONTINUOUS
62
5
10
134.750000
20
338.375000
11
136.750000
21
337.125000
0
LINE
5
1e1
100
AcDbEntity
8
1
100
AcDbLine
6
CONTINUOUS
62
5
10
134.500000
20
335.875000
11
136.250000
21
334.937500
0
POLYLINE
5
1e2
100
AcDbEntity
8
1
6
CONTINUOUS
62
5
100
AcDb2dPolyline
66
1
10
0.0
20
0.0
30
0.0
70
0
0
VERTEX
5
1e3
100
AcDbEntity
8
1
100
AcDbVertex
100
AcDb2dVertex
62
5
10
134.250000
20
333.687500
0
VERTEX
5
1e4
100
AcDbEntity
8
1
100
AcDbVertex
100
AcDb2dVertex
62
5
10
135.750000
20
332.750000
0
VERTEX
5
1e5
100
AcDbEntity
8
1
100
AcDbVertex
100
AcDb2dVertex
62
5
10
137.250000
20
331.812500
0
SEQEND
5
1e6
100
AcDbEntity
8
1
0
LINE
5
1e7
100
AcDbEntity
8
1
100
AcDbLine
6
CONTINUOUS
62
5
10
141.000000
20
336.187500
11
147.000000
21
336.187500
0
POLYLINE
5
1e8
100
AcDbEntity
8
1
6
CONTINUOUS
62
5
100
AcDb2dPolyline
66
1
10
0.0
20
0.0
30
0.0
70
0
0
VERTEX
5
1e9
100
AcDbEntity
8
1
100
AcDbVertex
100
AcDb2dVertex
62
5
10
144.250000
20
338.375000
0
VERTEX
5
1ea
100
AcDbEntity
8
1
100
AcDbVertex
100
AcDb2dVertex
62
5
10
144.250000
20
335.250000
0
VERTEX
5
1eb
100
AcDbEntity
8
1
100
AcDbVertex
100
AcDb2dVertex
62
5
10
143.750000
20
333.687500
0
VERTEX
5
1ec
100
AcDbEntity
8
1
100
AcDbVertex
100
AcDb2dVertex
62
5
10
143.000000
20
332.437500
0
VERTEX
5
1ed
100
AcDbEntity
8
1
100
AcDbVertex
100
AcDb2dVertex
62
5
10
142.250000
20
331.812500
0
SEQEND
5
1ee
100
AcDbEntity
8
1
0
POLYLINE
5
1ef
100
AcDbEntity
8
1
6
CONTINUOUS
62
5
100
AcDb2dPolyline
66
1
10
0.0
20
0.0
30
0.0
70
0
0
VERTEX
5
1f0
100
AcDbEntity
8
1
100
AcDbVertex
100
AcDb2dVertex
62
5
10
150.500000
20
338.062500
0
VERTEX
5
1f1
100
AcDbEntity
8
1
100
AcDbVertex
100
AcDb2dVertex
62
5
10
150.500000
20
336.187500
0
VERTEX
5
1f2
100
AcDbEntity
8
1
100
AcDbVertex
100
AcDb2dVertex
62
5
10
150.250000
20
334.625000
0
VERTEX
5
1f3
100
AcDbEntity
8
1
100
AcDbVertex
100
AcDb2dVertex
62
5
10
149.750000
20
333.375000
0
VERTEX
5
1f4
100
AcDbEntity
8
1
100
AcDbVertex
100
AcDb2dVertex
62
5
10
149.000000
20
332.125000
0
VERTEX
5
1f5
100
AcDbEntity
8
1
100
AcDbVertex
100
AcDb2dVertex
62
5
10
148.750000
20
331.812500
0
SEQEND
5
1f6
100
AcDbEntity
8
1
0
POLYLINE
5
1f7
100
AcDbEntity
8
1
6
CONTINUOUS
62
5
100
AcDb2dPolyline
66
1
10
0.0
20
0.0
30
0.0
70
0
0
VERTEX
5
1f8
100
AcDbEntity
8
1
100
AcDbVertex
100
AcDb2dVertex
62
5
10
152.000000
20
338.375000
0
VERTEX
5
1f9
100
AcDbEntity
8
1
100
AcDbVertex
100
AcDb2dVertex
62
5
10
152.000000
20
332.125000
0
VERTEX
5
1fa
100
AcDbEntity
8
1
100
AcDbVertex
100
AcDb2dVertex
62
5
10
152.750000
20
332.437500
0
VERTEX
5
1fb
100
AcDbEntity
8
1
100
AcDbVertex
100
AcDb2dVertex
62
5
10
153.750000
20
333.375000
0
VERTEX
5
1fc
100
AcDbEntity
8
1
100
AcDbVertex
100
AcDb2dVertex
62
5
10
154.500000
20
334.312500
0
VERTEX
5
1fd
100
AcDbEntity
8
1
100
AcDbVertex
100
AcDb2dVertex
62
5
10
155.000000
20
335.250000
0
SEQEND
5
1fe
100
AcDbEntity
8
1
0
POLYLINE
5
1ff
100
AcDbEntity
8
1
6
CONTINUOUS
62
5
100
AcDb2dPolyline
66
1
10
0.0
20
0.0
30
0.0
70
0
0
VERTEX
5
200
100
AcDbEntity
8
1
100
AcDbVertex
100
AcDb2dVertex
62
5
10
158.500000
20
339.312500
0
VERTEX
5
201
100
AcDbEntity
8
1
100
AcDbVertex
100
AcDb2dVertex
62
5
10
157.500000
20
336.500000
0
VERTEX
5
202
100
AcDbEntity
8
1
100
AcDbVertex
100
AcDb2dVertex
62
5
10
156.250000
20
334.312500
0
SEQEND
5
203
100
AcDbEntity
8
1
0
LINE
5
204
100
AcDbEntity
8
1
100
AcDbLine
6
CONTINUOUS
62
5
10
157.500000
20
336.500000
11
157.500000
21
330.562500
0
LINE
5
205
100
AcDbEntity
8
1
100
AcDbLine
6
CONTINUOUS
62
5
10
158.250000
20
336.500000
11
163.500000
21
336.500000
0
POLYLINE
5
206
100
AcDbEntity
8
1
6
CONTINUOUS
62
5
100
AcDb2dPolyline
66
1
10
0.0
20
0.0
30
0.0
70
0
0
VERTEX
5
207
100
AcDbEntity
8
1
100
AcDbVertex
100
AcDb2dVertex
62
5
10
161.750000
20
339.312500
0
VERTEX
5
208
100
AcDbEntity
8
1
100
AcDbVertex
100
AcDb2dVertex
62
5
10
161.750000
20
330.875000
0
VERTEX
5
209
100
AcDbEntity
8
1
100
AcDbVertex
100
AcDb2dVertex
62
5
10
160.250000
20
331.187500
0
SEQEND
5
20a
100
AcDbEntity
8
1
0
LINE
5
20b
100
AcDbEntity
8
1
100
AcDbLine
6
CONTINUOUS
62
5
10
159.250000
20
335.250000
11
160.250000
21
333.375000
0
POLYLINE
5
20c
100
AcDbEntity
8
1
6
CONTINUOUS
62
5
100
AcDb2dPolyline
66
1
10
0.0
20
0.0
30
0.0
70
0
0
VERTEX
5
20d
100
AcDbEntity
8
1
100
AcDbVertex
100
AcDb2dVertex
62
5
10
110.000000
20
337.125000
0
VERTEX
5
20e
100
AcDbEntity
8
1
100
AcDbVertex
100
AcDb2dVertex
62
5
10
113.250000
20
337.125000
0
VERTEX
5
20f
100
AcDbEntity
8
1
100
AcDbVertex
100
AcDb2dVertex
62
5
10
113.250000
20
336.812500
0
VERTEX
5
210
100
AcDbEntity
8
1
100
AcDbVertex
100
AcDb2dVertex
62
5
10
112.750000
20
335.562500
0
VERTEX
5
211
100
AcDbEntity
8
1
100
AcDbVertex
100
AcDb2dVertex
62
5
10
112.250000
20
334.625000
0
VERTEX
5
212
100
AcDbEntity
8
1
100
AcDbVertex
100
AcDb2dVertex
62
5
10
111.250000
20
333.375000
0
VERTEX
5
213
100
AcDbEntity
8
1
100
AcDbVertex
100
AcDb2dVertex
62
5
10
109.500000
20
331.812500
0
SEQEND
5
214
100
AcDbEntity
8
1
0
LINE
5
215
100
AcDbEntity
8
1
100
AcDbLine
6
CONTINUOUS
62
5
10
112.250000
20
334.625000
11
114.250000
21
331.812500
0
POLYLINE
5
216
100
AcDbEntity
8
1
6
CONTINUOUS
62
5
100
AcDb2dPolyline
66
1
10
0.0
20
0.0
30
0.0
70
0
0
VERTEX
5
217
100
AcDbEntity
8
1
100
AcDbVertex
100
AcDb2dVertex
62
5
10
117.750000
20
334.937500
0
VERTEX
5
218
100
AcDbEntity
8
1
100
AcDbVertex
100
AcDb2dVertex
62
5
10
118.750000
20
336.187500
0
VERTEX
5
219
100
AcDbEntity
8
1
100
AcDbVertex
100
AcDb2dVertex
62
5
10
119.500000
20
337.437500
0
VERTEX
5
21a
100
AcDbEntity
8
1
100
AcDbVertex
100
AcDb2dVertex
62
5
10
122.000000
20
337.437500
0
VERTEX
5
21b
100
AcDbEntity
8
1
100
AcDbVertex
100
AcDb2dVertex
62
5
10
122.000000
20
337.125000
0
VERTEX
5
21c
100
AcDbEntity
8
1
100
AcDbVertex
100
AcDb2dVertex
62
5
10
121.000000
20
334.625000
0
VERTEX
5
21d
100
AcDbEntity
8
1
100
AcDbVertex
100
AcDb2dVertex
62
5
10
119.750000
20
332.750000
0
VERTEX
5
21e
100
AcDbEntity
8
1
100
AcDbVertex
100
AcDb2dVertex
62
5
10
118.250000
20
331.500000
0
SEQEND
5
21f
100
AcDbEntity
8
1
0
LINE
5
220
100
AcDbEntity
8
1
100
AcDbLine
6
CONTINUOUS
62
5
10
119.500000
20
335.562500
11
120.750000
21
334.312500
0
POLYLINE
5
221
100
AcDbEntity
8
1
6
CONTINUOUS
62
5
100
AcDb2dPolyline
66
1
10
0.0
20
0.0
30
0.0
70
0
0
VERTEX
5
222
100
AcDbEntity
8
1
100
AcDbVertex
100
AcDb2dVertex
62
5
10
109.750000
20
325.562500
0
VERTEX
5
223
100
AcDbEntity
8
1
100
AcDbVertex
100
AcDb2dVertex
62
5
10
109.750000
20
327.750000
0
VERTEX
5
224
100
AcDbEntity
8
1
100
AcDbVertex
100
AcDb2dVertex
62
5
10
113.750000
20
327.750000
0
VERTEX
5
225
100
AcDbEntity
8
1
100
AcDbVertex
100
AcDb2dVertex
62
5
10
113.750000
20
326.812500
0
VERTEX
5
226
100
AcDbEntity
8
1
100
AcDbVertex
100
AcDb2dVertex
62
5
10
113.500000
20
325.250000
0
VERTEX
5
227
100
AcDbEntity
8
1
100
AcDbVertex
100
AcDb2dVertex
62
5
10
113.000000
20
324.000000
0
VERTEX
5
228
100
AcDbEntity
8
1
100
AcDbVertex
100
AcDb2dVertex
62
5
10
112.500000
20
323.062500
0
VERTEX
5
229
100
AcDbEntity
8
1
100
AcDbVertex
100
AcDb2dVertex
62
5
10
111.500000
20
321.812500
0
SEQEND
5
22a
100
AcDbEntity
8
1
0
POLYLINE
5
22b
100
AcDbEntity
8
1
6
CONTINUOUS
62
5
100
AcDb2dPolyline
66
1
10
0.0
20
0.0
30
0.0
70
0
0
VERTEX
5
22c
100
AcDbEntity
8
1
100
AcDbVertex
100
AcDb2dVertex
62
5
10
121.750000
20
328.687500
0
VERTEX
5
22d
100
AcDbEntity
8
1
100
AcDbVertex
100
AcDb2dVertex
62
5
10
119.750000
20
326.187500
0
VERTEX
5
22e
100
AcDbEntity
8
1
100
AcDbVertex
100
AcDb2dVertex
62
5
10
117.500000
20
324.625000
0
SEQEND
5
22f
100
AcDbEntity
8
1
0
LINE
5
230
100
AcDbEntity
8
1
100
AcDbLine
6
CONTINUOUS
62
5
10
120.250000
20
326.812500
11
120.250000
21
321.500000
0
POLYLINE
5
231
100
AcDbEntity
8
1
6
CONTINUOUS
62
5
100
AcDb2dPolyline
66
1
10
0.0
20
0.0
30
0.0
70
0
0
VERTEX
5
232
100
AcDbEntity
8
1
100
AcDbVertex
100
AcDb2dVertex
62
5
10
93.000000
20
337.437500
0
VERTEX
5
233
100
AcDbEntity
8
1
100
AcDbVertex
100
AcDb2dVertex
62
5
10
98.250000
20
337.437500
0
VERTEX
5
234
100
AcDbEntity
8
1
100
AcDbVertex
100
AcDb2dVertex
62
5
10
98.250000
20
337.125000
0
VERTEX
5
235
100
AcDbEntity
8
1
100
AcDbVertex
100
AcDb2dVertex
62
5
10
96.500000
20
335.250000
0
VERTEX
5
236
100
AcDbEntity
8
1
100
AcDbVertex
100
AcDb2dVertex
62
5
10
95.750000
20
335.250000
0
SEQEND
5
237
100
AcDbEntity
8
1
0
POLYLINE
5
238
100
AcDbEntity
8
1
6
CONTINUOUS
62
5
100
AcDb2dPolyline
66
1
10
0.0
20
0.0
30
0.0
70
0
0
VERTEX
5
239
100
AcDbEntity
8
1
100
AcDbVertex
100
AcDb2dVertex
62
5
10
95.750000
20
336.187500
0
VERTEX
5
23a
100
AcDbEntity
8
1
100
AcDbVertex
100
AcDb2dVertex
62
5
10
95.750000
20
334.625000
0
VERTEX
5
23b
100
AcDbEntity
8
1
100
AcDbVertex
100
AcDb2dVertex
62
5
10
95.000000
20
332.750000
0
VERTEX
5
23c
100
AcDbEntity
8
1
100
AcDbVertex
100
AcDb2dVertex
62
5
10
94.000000
20
331.500000
0
SEQEND
5
23d
100
AcDbEntity
8
1
0
POLYLINE
5
23e
100
AcDbEntity
8
1
6
CONTINUOUS
62
5
100
AcDb2dPolyline
66
1
10
0.0
20
0.0
30
0.0
70
0
0
VERTEX
5
23f
100
AcDbEntity
8
1
100
AcDbVertex
100
AcDb2dVertex
62
5
10
86.500000
20
325.562500
0
VERTEX
5
240
100
AcDbEntity
8
1
100
AcDbVertex
100
AcDb2dVertex
62
5
10
88.500000
20
325.562500
0
VERTEX
5
241
100
AcDbEntity
8
1
100
AcDbVertex
100
AcDb2dVertex
62
5
10
88.250000
20
322.437500
0
SEQEND
5
242
100
AcDbEntity
8
1
0
LINE
5
243
100
AcDbEntity
8
1
100
AcDbLine
6
CONTINUOUS
62
5
10
85.750000
20
322.437500
11
90.000000
21
322.437500
0
POLYLINE
5
244
100
AcDbEntity
8
1
6
CONTINUOUS
62
5
100
AcDb2dPolyline
66
1
10
0.0
20
0.0
30
0.0
70
0
0
VERTEX
5
245
100
AcDbEntity
8
1
100
AcDbVertex
100
AcDb2dVertex
62
5
10
93.000000
20
327.437500
0
VERTEX
5
246
100
AcDbEntity
8
1
100
AcDbVertex
100
AcDb2dVertex
62
5
10
98.250000
20
327.437500
0
VERTEX
5
247
100
AcDbEntity
8
1
100
AcDbVertex
100
AcDb2dVertex
62
5
10
98.250000
20
327.125000
0
VERTEX
5
248
100
AcDbEntity
8
1
100
AcDbVertex
100
AcDb2dVertex
62
5
10
96.500000
20
325.250000
0
VERTEX
5
249
100
AcDbEntity
8
1
100
AcDbVertex
100
AcDb2dVertex
62
5
10
95.750000
20
325.250000
0
SEQEND
5
24a
100
AcDbEntity
8
1
0
POLYLINE
5
24b
100
AcDbEntity
8
1
6
CONTINUOUS
62
5
100
AcDb2dPolyline
66
1
10
0.0
20
0.0
30
0.0
70
0
0
VERTEX
5
24c
100
AcDbEntity
8
1
100
AcDbVertex
100
AcDb2dVertex
62
5
10
95.750000
20
326.187500
0
VERTEX
5
24d
100
AcDbEntity
8
1
100
AcDbVertex
100
AcDb2dVertex
62
5
10
95.750000
20
324.625000
0
VERTEX
5
24e
100
AcDbEntity
8
1
100
AcDbVertex
100
AcDb2dVertex
62
5
10
95.000000
20
322.750000
0
VERTEX
5
24f
100
AcDbEntity
8
1
100
AcDbVertex
100
AcDb2dVertex
62
5
10
94.000000
20
321.500000
0
SEQEND
5
250
100
AcDbEntity
8
1
0
POLYLINE
5
251
100
AcDbEntity
8
1
6
CONTINUOUS
62
5
100
AcDb2dPolyline
66
1
10
0.0
20
0.0
30
0.0
70
0
0
VERTEX
5
252
100
AcDbEntity
8
1
100
AcDbVertex
100
AcDb2dVertex
62
5
10
100.750000
20
335.562500
0
VERTEX
5
253
100
AcDbEntity
8
1
100
AcDbVertex
100
AcDb2dVertex
62
5
10
101.000000
20
335.250000
0
VERTEX
5
254
100
AcDbEntity
8
1
100
AcDbVertex
100
AcDb2dVertex
62
5
10
107.750000
20
335.250000
0
SEQEND
5
255
100
AcDbEntity
8
1
0
LINE
5
256
100
AcDbEntity
8
1
100
AcDbLine
6
CONTINUOUS
62
5
10
101.250000
20
326.187500
11
106.250000
21
326.187500
0
POLYLINE
5
257
100
AcDbEntity
8
1
6
CONTINUOUS
62
5
100
AcDb2dPolyline
66
1
10
0.0
20
0.0
30
0.0
70
0
0
VERTEX
5
258
100
AcDbEntity
8
1
100
AcDbVertex
100
AcDb2dVertex
62
5
10
103.750000
20
328.062500
0
VERTEX
5
259
100
AcDbEntity
8
1
100
AcDbVertex
100
AcDb2dVertex
62
5
10
103.750000
20
321.812500
0
VERTEX
5
25a
100
AcDbEntity
8
1
100
AcDbVertex
100
AcDb2dVertex
62
5
10
103.250000
20
321.812500
0
SEQEND
5
25b
100
AcDbEntity
8
1
0
LINE
5
25c
100
AcDbEntity
8
1
100
AcDbLine
6
CONTINUOUS
62
5
10
102.500000
20
324.625000
11
101.250000
21
322.750000
0
LINE
5
25d
100
AcDbEntity
8
1
100
AcDbLine
6
CONTINUOUS
62
5
10
105.250000
20
324.625000
11
106.500000
21
323.062500
0
POLYLINE
5
25e
100
AcDbEntity
8
1
6
CONTINUOUS
62
5
100
AcDb2dPolyline
66
1
10
0.0
20
0.0
30
0.0
70
0
0
VERTEX
5
25f
100
AcDbEntity
8
1
100
AcDbVertex
100
AcDb2dVertex
62
5
10
124.750000
20
335.562500
0
VERTEX
5
260
100
AcDbEntity
8
1
100
AcDbVertex
100
AcDb2dVertex
62
5
10
125.000000
20
335.250000
0
VERTEX
5
261
100
AcDbEntity
8
1
100
AcDbVertex
100
AcDb2dVertex
62
5
10
131.750000
20
335.250000
0
SEQEND
5
262
100
AcDbEntity
8
1
0
POLYLINE
5
263
100
AcDbEntity
8
1
6
CONTINUOUS
62
5
100
AcDb2dPolyline
66
1
10
0.0
20
0.0
30
0.0
70
0
0
VERTEX
5
264
100
AcDbEntity
8
1
100
AcDbVertex
100
AcDb2dVertex
62
5
10
127.250000
20
326.187500
0
VERTEX
5
265
100
AcDbEntity
8
1
100
AcDbVertex
100
AcDb2dVertex
62
5
10
127.500000
20
326.187500
0
VERTEX
5
266
100
AcDbEntity
8
1
100
AcDbVertex
100
AcDb2dVertex
62
5
10
129.250000
20
324.937500
0
SEQEND
5
267
100
AcDbEntity
8
1
0
LINE
5
268
100
AcDbEntity
8
1
100
AcDbLine
6
CONTINUOUS
62
5
10
127.250000
20
329.000000
11
127.250000
21
321.500000
0
LINE
5
269
100
AcDbEntity
8
1
100
AcDbLine
6
CONTINUOUS
62
5
10
92.500000
20
296.750000
11
95.625000
21
296.750000
0
POLYLINE
5
26a
100
AcDbEntity
8
1
6
CONTINUOUS
62
5
100
AcDb2dPolyline
66
1
10
0.0
20
0.0
30
0.0
70
0
0
VERTEX
5
26b
100
AcDbEntity
8
1
100
AcDbVertex
100
AcDb2dVertex
62
5
10
87.500000
20
293.000000
0
VERTEX
5
26c
100
AcDbEntity
8
1
100
AcDbVertex
100
AcDb2dVertex
62
5
10
87.500000
20
300.500000
0
VERTEX
5
26d
100
AcDbEntity
8
1
100
AcDbVertex
100
AcDb2dVertex
62
5
10
90.625000
20
293.000000
0
VERTEX
5
26e
100
AcDbEntity
8
1
100
AcDbVertex
100
AcDb2dVertex
62
5
10
90.625000
20
300.500000
0
SEQEND
5
26f
100
AcDbEntity
8
1
0
LINE
5
270
100
AcDbEntity
8
1
100
AcDbLine
6
CONTINUOUS
62
5
10
97.500000
20
300.500000
11
100.312500
21
300.500000
0
POLYLINE
5
271
100
AcDbEntity
8
1
6
CONTINUOUS
62
5
100
AcDb2dPolyline
66
1
10
0.0
20
0.0
30
0.0
70
0
0
VERTEX
5
272
100
AcDbEntity
8
1
100
AcDbVertex
100
AcDb2dVertex
62
5
10
97.500000
20
300.500000
0
VERTEX
5
273
100
AcDbEntity
8
1
100
AcDbVertex
100
AcDb2dVertex
62
5
10
97.500000
20
296.750000
0
VERTEX
5
274
100
AcDbEntity
8
1
100
AcDbVertex
100
AcDb2dVertex
62
5
10
98.125000
20
297.375000
0
VERTEX
5
275
100
AcDbEntity
8
1
100
AcDbVertex
100
AcDb2dVertex
62
5
10
98.750000
20
297.687500
0
VERTEX
5
276
100
AcDbEntity
8
1
100
AcDbVertex
100
AcDb2dVertex
62
5
10
99.687500
20
297.687500
0
VERTEX
5
277
100
AcDbEntity
8
1
100
AcDbVertex
100
AcDb2dVertex
62
5
10
100.312500
20
297.375000
0
VERTEX
5
278
100
AcDbEntity
8
1
100
AcDbVertex
100
AcDb2dVertex
62
5
10
100.625000
20
296.437500
0
VERTEX
5
279
100
AcDbEntity
8
1
100
AcDbVertex
100
AcDb2dVertex
62
5
10
100.625000
20
294.562500
0
VERTEX
5
27a
100
AcDbEntity
8
1
100
AcDbVertex
100
AcDb2dVertex
62
5
10
100.000000
20
293.625000
0
VERTEX
5
27b
100
AcDbEntity
8
1
100
AcDbVertex
100
AcDb2dVertex
62
5
10
99.062500
20
293.000000
0
VERTEX
5
27c
100
AcDbEntity
8
1
100
AcDbVertex
100
AcDb2dVertex
62
5
10
97.500000
20
293.000000
0
SEQEND
5
27d
100
AcDbEntity
8
1
0
POLYLINE
5
27e
100
AcDbEntity
8
1
6
CONTINUOUS
62
5
100
AcDb2dPolyline
66
1
10
0.0
20
0.0
30
0.0
70
0
0
VERTEX
5
27f
100
AcDbEntity
8
1
100
AcDbVertex
100
AcDb2dVertex
62
5
10
105.625000
20
300.500000
0
VERTEX
5
280
100
AcDbEntity
8
1
100
AcDbVertex
100
AcDb2dVertex
62
5
10
102.500000
20
300.500000
0
VERTEX
5
281
100
AcDbEntity
8
1
100
AcDbVertex
100
AcDb2dVertex
62
5
10
102.500000
20
293.000000
0
VERTEX
5
282
100
AcDbEntity
8
1
100
AcDbVertex
100
AcDb2dVertex
62
5
10
105.937500
20
293.000000
0
SEQEND
5
283
100
AcDbEntity
8
1
0
LINE
5
284
100
AcDbEntity
8
1
100
AcDbLine
6
CONTINUOUS
62
5
10
102.500000
20
296.750000
11
105.312500
21
296.750000
0
POLYLINE
5
285
100
AcDbEntity
8
1
6
CONTINUOUS
62
5
100
AcDb2dPolyline
66
1
10
0.0
20
0.0
30
0.0
70
0
0
VERTEX
5
286
100
AcDbEntity
8
1
100
AcDbVertex
100
AcDb2dVertex
62
5
10
107.500000
20
300.500000
0
VERTEX
5
287
100
AcDbEntity
8
1
100
AcDbVertex
100
AcDb2dVertex
62
5
10
109.062500
20
293.000000
0
VERTEX
5
288
100
AcDbEntity
8
1
100
AcDbVertex
100
AcDb2dVertex
62
5
10
110.625000
20
300.500000
0
SEQEND
5
289
100
AcDbEntity
8
1
0
LINE
5
28a
100
AcDbEntity
8
1
100
AcDbLine
6
CONTINUOUS
62
5
10
117.500000
20
300.500000
11
117.500000
21
293.000000
0
POLYLINE
5
28b
100
AcDbEntity
8
1
6
CONTINUOUS
62
5
100
AcDb2dPolyline
66
1
10
0.0
20
0.0
30
0.0
70
0
0
VERTEX
5
28c
100
AcDbEntity
8
1
100
AcDbVertex
100
AcDb2dVertex
62
5
10
117.500000
20
300.500000
0
VERTEX
5
28d
100
AcDbEntity
8
1
100
AcDbVertex
100
AcDb2dVertex
62
5
10
118.750000
20
300.500000
0
VERTEX
5
28e
100
AcDbEntity
8
1
100
AcDbVertex
100
AcDb2dVertex
62
5
10
119.687500
20
300.187500
0
VERTEX
5
28f
100
AcDbEntity
8
1
100
AcDbVertex
100
AcDb2dVertex
62
5
10
120.312500
20
299.562500
0
VERTEX
5
290
100
AcDbEntity
8
1
100
AcDbVertex
100
AcDb2dVertex
62
5
10
120.625000
20
298.937500
0
VERTEX
5
291
100
AcDbEntity
8
1
100
AcDbVertex
100
AcDb2dVertex
62
5
10
120.625000
20
298.000000
0
VERTEX
5
292
100
AcDbEntity
8
1
100
AcDbVertex
100
AcDb2dVertex
62
5
10
120.312500
20
297.375000
0
VERTEX
5
293
100
AcDbEntity
8
1
100
AcDbVertex
100
AcDb2dVertex
62
5
10
119.687500
20
296.750000
0
VERTEX
5
294
100
AcDbEntity
8
1
100
AcDbVertex
100
AcDb2dVertex
62
5
10
118.750000
20
296.437500
0
VERTEX
5
295
100
AcDbEntity
8
1
100
AcDbVertex
100
AcDb2dVertex
62
5
10
117.500000
20
296.437500
0
SEQEND
5
296
100
AcDbEntity
8
1
0
POLYLINE
5
297
100
AcDbEntity
8
1
6
CONTINUOUS
62
5
100
AcDb2dPolyline
66
1
10
0.0
20
0.0
30
0.0
70
0
0
VERTEX
5
298
100
AcDbEntity
8
1
100
AcDbVertex
100
AcDb2dVertex
62
5
10
122.187500
20
300.500000
0
VERTEX
5
299
100
AcDbEntity
8
1
100
AcDbVertex
100
AcDb2dVertex
62
5
10
123.125000
20
293.000000
0
VERTEX
5
29a
100
AcDbEntity
8
1
100
AcDbVertex
100
AcDb2dVertex
62
5
10
124.062500
20
300.500000
0
VERTEX
5
29b
100
AcDbEntity
8
1
100
AcDbVertex
100
AcDb2dVertex
62
5
10
125.000000
20
293.000000
0
VERTEX
5
29c
100
AcDbEntity
8
1
100
AcDbVertex
100
AcDb2dVertex
62
5
10
125.937500
20
300.500000
0
SEQEND
5
29d
100
AcDbEntity
8
1
0
POLYLINE
5
29e
100
AcDbEntity
8
1
6
CONTINUOUS
62
5
100
AcDb2dPolyline
66
1
10
0.0
20
0.0
30
0.0
70
0
0
VERTEX
5
29f
100
AcDbEntity
8
1
100
AcDbVertex
100
AcDb2dVertex
62
5
10
77.750000
20
327.750000
0
VERTEX
5
2a0
100
AcDbEntity
8
1
100
AcDbVertex
100
AcDb2dVertex
62
5
10
77.750000
20
322.437500
0
VERTEX
5
2a1
100
AcDbEntity
8
1
100
AcDbVertex
100
AcDb2dVertex
62
5
10
78.250000
20
321.812500
0
VERTEX
5
2a2
100
AcDbEntity
8
1
100
AcDbVertex
100
AcDb2dVertex
62
5
10
81.750000
20
321.812500
0
SEQEND
5
2a3
100
AcDbEntity
8
1
0
LINE
5
2a4
100
AcDbEntity
8
1
100
AcDbLine
6
CONTINUOUS
62
5
10
81.250000
20
325.875000
11
77.750000
21
324.937500
0
POLYLINE
5
2a5
100
AcDbEntity
8
1
6
CONTINUOUS
62
5
100
AcDb2dPolyline
66
1
10
0.0
20
0.0
30
0.0
70
1
0
VERTEX
5
2a6
100
AcDbEntity
8
1
100
AcDbVertex
100
AcDb2dVertex
62
5
10
81.250000
20
327.750000
0
VERTEX
5
2a7
100
AcDbEntity
8
1
100
AcDbVertex
100
AcDb2dVertex
62
5
10
81.750000
20
328.375000
0
VERTEX
5
2a8
100
AcDbEntity
8
1
100
AcDbVertex
100
AcDb2dVertex
62
5
10
82.000000
20
328.375000
0
VERTEX
5
2a9
100
AcDbEntity
8
1
100
AcDbVertex
100
AcDb2dVertex
62
5
10
82.500000
20
327.750000
0
VERTEX
5
2aa
100
AcDbEntity
8
1
100
AcDbVertex
100
AcDb2dVertex
62
5
10
82.500000
20
327.437500
0
VERTEX
5
2ab
100
AcDbEntity
8
1
100
AcDbVertex
100
AcDb2dVertex
62
5
10
82.000000
20
326.812500
0
VERTEX
5
2ac
100
AcDbEntity
8
1
100
AcDbVertex
100
AcDb2dVertex
62
5
10
81.750000
20
326.812500
0
VERTEX
5
2ad
100
AcDbEntity
8
1
100
AcDbVertex
100
AcDb2dVertex
62
5
10
81.250000
20
327.437500
0
VERTEX
5
2ae
100
AcDbEntity
8
1
100
AcDbVertex
100
AcDb2dVertex
62
5
10
81.250000
20
327.750000
0
SEQEND
5
2af
100
AcDbEntity
8
1
0
LINE
5
2b0
100
AcDbEntity
8
1
100
AcDbLine
6
CONTINUOUS
62
5
10
76.500000
20
336.500000
11
78.500000
21
336.500000
0
LINE
5
2b1
100
AcDbEntity
8
1
100
AcDbLine
6
CONTINUOUS
62
5
10
76.250000
20
332.125000
11
78.500000
21
333.375000
0
LINE
5
2b2
100
AcDbEntity
8
1
100
AcDbLine
6
CONTINUOUS
62
5
10
77.500000
20
339.000000
11
77.500000
21
332.750000
0
POLYLINE
5
2b3
100
AcDbEntity
8
1
6
CONTINUOUS
62
5
100
AcDb2dPolyline
66
1
10
0.0
20
0.0
30
0.0
70
1
0
VERTEX
5
2b4
100
AcDbEntity
8
1
100
AcDbVertex
100
AcDb2dVertex
62
5
10
79.500000
20
338.687500
0
VERTEX
5
2b5
100
AcDbEntity
8
1
100
AcDbVertex
100
AcDb2dVertex
62
5
10
79.500000
20
335.250000
0
VERTEX
5
2b6
100
AcDbEntity
8
1
100
AcDbVertex
100
AcDb2dVertex
62
5
10
82.500000
20
335.250000
0
VERTEX
5
2b7
100
AcDbEntity
8
1
100
AcDbVertex
100
AcDb2dVertex
62
5
10
82.500000
20
338.687500
0
VERTEX
5
2b8
100
AcDbEntity
8
1
100
AcDbVertex
100
AcDb2dVertex
62
5
10
79.500000
20
338.687500
0
SEQEND
5
2b9
100
AcDbEntity
8
1
0
LINE
5
2ba
100
AcDbEntity
8
1
100
AcDbLine
6
CONTINUOUS
62
5
10
79.500000
20
337.125000
11
82.500000
21
337.125000
0
LINE
5
2bb
100
AcDbEntity
8
1
100
AcDbLine
6
CONTINUOUS
62
5
10
81.000000
20
338.687500
11
81.000000
21
331.500000
0
LINE
5
2bc
100
AcDbEntity
8
1
100
AcDbLine
6
CONTINUOUS
62
5
10
79.000000
20
333.687500
11
83.000000
21
333.687500
0
LINE
5
2bd
100
AcDbEntity
8
1
100
AcDbLine
6
CONTINUOUS
62
5
10
78.250000
20
331.500000
11
83.500000
21
331.500000
0
LINE
5
2be
100
AcDbEntity
8
1
100
AcDbLine
6
CONTINUOUS
62
5
10
50.000000
20
350.000000
11
50.000000
21
318.000000
0
LINE
5
2bf
100
AcDbEntity
8
1
100
AcDbLine
6
CONTINUOUS
62
5
10
77.500000
20
296.750000
11
80.625000
21
296.750000
0
POLYLINE
5
2c0
100
AcDbEntity
8
1
6
CONTINUOUS
62
5
100
AcDb2dPolyline
66
1
10
0.0
20
0.0
30
0.0
70
0
0
VERTEX
5
2c1
100
AcDbEntity
8
1
100
AcDbVertex
100
AcDb2dVertex
62
5
10
65.312500
20
300.500000
0
VERTEX
5
2c2
100
AcDbEntity
8
1
100
AcDbVertex
100
AcDb2dVertex
62
5
10
65.312500
20
294.875000
0
VERTEX
5
2c3
100
AcDbEntity
8
1
100
AcDbVertex
100
AcDb2dVertex
62
5
10
65.000000
20
293.625000
0
VERTEX
5
2c4
100
AcDbEntity
8
1
100
AcDbVertex
100
AcDb2dVertex
62
5
10
64.375000
20
293.000000
0
VERTEX
5
2c5
100
AcDbEntity
8
1
100
AcDbVertex
100
AcDb2dVertex
62
5
10
63.437500
20
293.000000
0
VERTEX
5
2c6
100
AcDbEntity
8
1
100
AcDbVertex
100
AcDb2dVertex
62
5
10
62.812500
20
293.625000
0
VERTEX
5
2c7
100
AcDbEntity
8
1
100
AcDbVertex
100
AcDb2dVertex
62
5
10
62.500000
20
294.875000
0
SEQEND
5
2c8
100
AcDbEntity
8
1
0
POLYLINE
5
2c9
100
AcDbEntity
8
1
6
CONTINUOUS
62
5
100
AcDb2dPolyline
66
1
10
0.0
20
0.0
30
0.0
70
0
0
VERTEX
5
2ca
100
AcDbEntity
8
1
100
AcDbVertex
100
AcDb2dVertex
62
5
10
70.625000
20
300.500000
0
VERTEX
5
2cb
100
AcDbEntity
8
1
100
AcDbVertex
100
AcDb2dVertex
62
5
10
67.500000
20
300.500000
0
VERTEX
5
2cc
100
AcDbEntity
8
1
100
AcDbVertex
100
AcDb2dVertex
62
5
10
67.500000
20
293.000000
0
VERTEX
5
2cd
100
AcDbEntity
8
1
100
AcDbVertex
100
AcDb2dVertex
62
5
10
70.937500
20
293.000000
0
SEQEND
5
2ce
100
AcDbEntity
8
1
0
LINE
5
2cf
100
AcDbEntity
8
1
100
AcDbLine
6
CONTINUOUS
62
5
10
67.500000
20
296.750000
11
70.312500
21
296.750000
0
POLYLINE
5
2d0
100
AcDbEntity
8
1
6
CONTINUOUS
62
5
100
AcDb2dPolyline
66
1
10
0.0
20
0.0
30
0.0
70
0
0
VERTEX
5
2d1
100
AcDbEntity
8
1
100
AcDbVertex
100
AcDb2dVertex
62
5
10
75.625000
20
298.937500
0
VERTEX
5
2d2
100
AcDbEntity
8
1
100
AcDbVertex
100
AcDb2dVertex
62
5
10
75.312500
20
299.875000
0
VERTEX
5
2d3
100
AcDbEntity
8
1
100
AcDbVertex
100
AcDb2dVertex
62
5
10
74.687500
20
300.500000
0
VERTEX
5
2d4
100
AcDbEntity
8
1
100
AcDbVertex
100
AcDb2dVertex
62
5
10
73.750000
20
300.500000
0
VERTEX
5
2d5
100
AcDbEntity
8
1
100
AcDbVertex
100
AcDb2dVertex
62
5
10
72.812500
20
299.562500
0
VERTEX
5
2d6
100
AcDbEntity
8
1
100
AcDbVertex
100
AcDb2dVertex
62
5
10
72.500000
20
298.000000
0
VERTEX
5
2d7
100
AcDbEntity
8
1
100
AcDbVertex
100
AcDb2dVertex
62
5
10
72.500000
20
295.500000
0
VERTEX
5
2d8
100
AcDbEntity
8
1
100
AcDbVertex
100
AcDb2dVertex
62
5
10
72.812500
20
293.937500
0
VERTEX
5
2d9
100
AcDbEntity
8
1
100
AcDbVertex
100
AcDb2dVertex
62
5
10
73.750000
20
293.000000
0
VERTEX
5
2da
100
AcDbEntity
8
1
100
AcDbVertex
100
AcDb2dVertex
62
5
10
74.687500
20
293.000000
0
VERTEX
5
2db
100
AcDbEntity
8
1
100
AcDbVertex
100
AcDb2dVertex
62
5
10
75.312500
20
293.625000
0
VERTEX
5
2dc
100
AcDbEntity
8
1
100
AcDbVertex
100
AcDb2dVertex
62
5
10
75.937500
20
295.187500
0
SEQEND
5
2dd
100
AcDbEntity
8
1
0
LINE
5
2de
100
AcDbEntity
8
1
100
AcDbLine
6
CONTINUOUS
62
5
10
85.000000
20
339.000000
11
86.000000
21
338.062500
0
POLYLINE
5
2df
100
AcDbEntity
8
1
6
CONTINUOUS
62
5
100
AcDb2dPolyline
66
1
10
0.0
20
0.0
30
0.0
70
0
0
VERTEX
5
2e0
100
AcDbEntity
8
1
100
AcDbVertex
100
AcDb2dVertex
62
5
10
84.750000
20
335.875000
0
VERTEX
5
2e1
100
AcDbEntity
8
1
100
AcDbVertex
100
AcDb2dVertex
62
5
10
86.000000
20
335.875000
0
VERTEX
5
2e2
100
AcDbEntity
8
1
100
AcDbVertex
100
AcDb2dVertex
62
5
10
86.000000
20
332.750000
0
VERTEX
5
2e3
100
AcDbEntity
8
1
100
AcDbVertex
100
AcDb2dVertex
62
5
10
84.750000
20
331.187500
0
SEQEND
5
2e4
100
AcDbEntity
8
1
0
POLYLINE
5
2e5
100
AcDbEntity
8
1
6
CONTINUOUS
62
5
100
AcDb2dPolyline
66
1
10
0.0
20
0.0
30
0.0
70
0
0
VERTEX
5
2e6
100
AcDbEntity
8
1
100
AcDbVertex
100
AcDb2dVertex
62
5
10
86.000000
20
332.750000
0
VERTEX
5
2e7
100
AcDbEntity
8
1
100
AcDbVertex
100
AcDb2dVertex
62
5
10
86.750000
20
331.500000
0
VERTEX
5
2e8
100
AcDbEntity
8
1
100
AcDbVertex
100
AcDb2dVertex
62
5
10
87.750000
20
331.187500
0
VERTEX
5
2e9
100
AcDbEntity
8
1
100
AcDbVertex
100
AcDb2dVertex
62
5
10
91.500000
20
331.187500
0
SEQEND
5
2ea
100
AcDbEntity
8
1
0
POLYLINE
5
2eb
100
AcDbEntity
8
1
6
CONTINUOUS
62
5
100
AcDb2dPolyline
66
1
10
0.0
20
0.0
30
0.0
70
0
0
VERTEX
5
2ec
100
AcDbEntity
8
1
100
AcDbVertex
100
AcDb2dVertex
62
5
10
88.750000
20
336.500000
0
VERTEX
5
2ed
100
AcDbEntity
8
1
100
AcDbVertex
100
AcDb2dVertex
62
5
10
88.000000
20
334.625000
0
VERTEX
5
2ee
100
AcDbEntity
8
1
100
AcDbVertex
100
AcDb2dVertex
62
5
10
87.250000
20
333.375000
0
VERTEX
5
2ef
100
AcDbEntity
8
1
100
AcDbVertex
100
AcDb2dVertex
62
5
10
86.750000
20
332.750000
0
SEQEND
5
2f0
100
AcDbEntity
8
1
0
POLYLINE
5
2f1
100
AcDbEntity
8
1
6
CONTINUOUS
62
5
100
AcDb2dPolyline
66
1
10
0.0
20
0.0
30
0.0
70
0
0
VERTEX
5
2f2
100
AcDbEntity
8
1
100
AcDbVertex
100
AcDb2dVertex
62
5
10
87.500000
20
339.312500
0
VERTEX
5
2f3
100
AcDbEntity
8
1
100
AcDbVertex
100
AcDb2dVertex
62
5
10
88.750000
20
339.312500
0
VERTEX
5
2f4
100
AcDbEntity
8
1
100
AcDbVertex
100
AcDb2dVertex
62
5
10
88.750000
20
336.500000
0
VERTEX
5
2f5
100
AcDbEntity
8
1
100
AcDbVertex
100
AcDb2dVertex
62
5
10
89.500000
20
334.625000
0
VERTEX
5
2f6
100
AcDbEntity
8
1
100
AcDbVertex
100
AcDb2dVertex
62
5
10
90.500000
20
333.375000
0
VERTEX
5
2f7
100
AcDbEntity
8
1
100
AcDbVertex
100
AcDb2dVertex
62
5
10
91.250000
20
332.750000
0
SEQEND
5
2f8
100
AcDbEntity
8
1
0
LINE
5
2f9
100
AcDbEntity
8
1
100
AcDbLine
6
CONTINUOUS
62
5
10
82.500000
20
300.500000
11
82.500000
21
293.000000
0
POLYLINE
5
2fa
100
AcDbEntity
8
1
6
CONTINUOUS
62
5
100
AcDb2dPolyline
66
1
10
0.0
20
0.0
30
0.0
70
0
0
VERTEX
5
2fb
100
AcDbEntity
8
1
100
AcDbVertex
100
AcDb2dVertex
62
5
10
82.500000
20
300.500000
0
VERTEX
5
2fc
100
AcDbEntity
8
1
100
AcDbVertex
100
AcDb2dVertex
62
5
10
84.062500
20
300.500000
0
VERTEX
5
2fd
100
AcDbEntity
8
1
100
AcDbVertex
100
AcDb2dVertex
62
5
10
84.687500
20
300.187500
0
VERTEX
5
2fe
100
AcDbEntity
8
1
100
AcDbVertex
100
AcDb2dVertex
62
5
10
85.000000
20
299.875000
0
VERTEX
5
2ff
100
AcDbEntity
8
1
100
AcDbVertex
100
AcDb2dVertex
62
5
10
85.312500
20
299.250000
0
VERTEX
5
300
100
AcDbEntity
8
1
100
AcDbVertex
100
AcDb2dVertex
62
5
10
85.312500
20
298.312500
0
VERTEX
5
301
100
AcDbEntity
8
1
100
AcDbVertex
100
AcDb2dVertex
62
5
10
85.000000
20
297.687500
0
VERTEX
5
302
100
AcDbEntity
8
1
100
AcDbVertex
100
AcDb2dVertex
62
5
10
84.687500
20
297.375000
0
VERTEX
5
303
100
AcDbEntity
8
1
100
AcDbVertex
100
AcDb2dVertex
62
5
10
84.062500
20
297.062500
0
VERTEX
5
304
100
AcDbEntity
8
1
100
AcDbVertex
100
AcDb2dVertex
62
5
10
82.500000
20
297.062500
0
SEQEND
5
305
100
AcDbEntity
8
1
0
POLYLINE
5
306
100
AcDbEntity
8
1
6
CONTINUOUS
62
5
100
AcDb2dPolyline
66
1
10
0.0
20
0.0
30
0.0
70
0
0
VERTEX
5
307
100
AcDbEntity
8
1
100
AcDbVertex
100
AcDb2dVertex
62
5
10
84.062500
20
297.062500
0
VERTEX
5
308
100
AcDbEntity
8
1
100
AcDbVertex
100
AcDb2dVertex
62
5
10
84.687500
20
296.750000
0
VERTEX
5
309
100
AcDbEntity
8
1
100
AcDbVertex
100
AcDb2dVertex
62
5
10
85.312500
20
296.125000
0
VERTEX
5
30a
100
AcDbEntity
8
1
100
AcDbVertex
100
AcDb2dVertex
62
5
10
85.625000
20
295.500000
0
VERTEX
5
30b
100
AcDbEntity
8
1
100
AcDbVertex
100
AcDb2dVertex
62
5
10
85.625000
20
294.250000
0
VERTEX
5
30c
100
AcDbEntity
8
1
100
AcDbVertex
100
AcDb2dVertex
62
5
10
85.312500
20
293.625000
0
VERTEX
5
30d
100
AcDbEntity
8
1
100
AcDbVertex
100
AcDb2dVertex
62
5
10
85.000000
20
293.312500
0
VERTEX
5
30e
100
AcDbEntity
8
1
100
AcDbVertex
100
AcDb2dVertex
62
5
10
84.375000
20
293.000000
0
VERTEX
5
30f
100
AcDbEntity
8
1
100
AcDbVertex
100
AcDb2dVertex
62
5
10
82.500000
20
293.000000
0
SEQEND
5
310
100
AcDbEntity
8
1
0
POLYLINE
5
311
100
AcDbEntity
8
1
6
DOT2
62
5
100
AcDb2dPolyline
66
1
10
0.0
20
0.0
30
0.0
70
0
0
VERTEX
5
312
100
AcDbEntity
8
1
100
AcDbVertex
100
AcDb2dVertex
62
5
10
135.050000
20
249.750000
0
VERTEX
5
313
100
AcDbEntity
8
1
100
AcDbVertex
100
AcDb2dVertex
62
5
10
134.112500
20
249.750000
0
VERTEX
5
314
100
AcDbEntity
8
1
100
AcDbVertex
100
AcDb2dVertex
62
5
10
133.175000
20
249.437500
0
VERTEX
5
315
100
AcDbEntity
8
1
100
AcDbVertex
100
AcDb2dVertex
62
5
10
132.550000
20
248.187500
0
VERTEX
5
316
100
AcDbEntity
8
1
100
AcDbVertex
100
AcDb2dVertex
62
5
10
132.550000
20
243.812500
0
VERTEX
5
317
100
AcDbEntity
8
1
100
AcDbVertex
100
AcDb2dVertex
62
5
10
132.862500
20
242.875000
0
VERTEX
5
318
100
AcDbEntity
8
1
100
AcDbVertex
100
AcDb2dVertex
62
5
10
133.175000
20
242.562500
0
VERTEX
5
319
100
AcDbEntity
8
1
100
AcDbVertex
100
AcDb2dVertex
62
5
10
133.800000
20
242.250000
0
VERTEX
5
31a
100
AcDbEntity
8
1
100
AcDbVertex
100
AcDb2dVertex
62
5
10
134.425000
20
242.250000
0
VERTEX
5
31b
100
AcDbEntity
8
1
100
AcDbVertex
100
AcDb2dVertex
62
5
10
135.050000
20
242.562500
0
VERTEX
5
31c
100
AcDbEntity
8
1
100
AcDbVertex
100
AcDb2dVertex
62
5
10
135.362500
20
242.875000
0
VERTEX
5
31d
100
AcDbEntity
8
1
100
AcDbVertex
100
AcDb2dVertex
62
5
10
135.675000
20
243.812500
0
VERTEX
5
31e
100
AcDbEntity
8
1
100
AcDbVertex
100
AcDb2dVertex
62
5
10
135.675000
20
245.687500
0
VERTEX
5
31f
100
AcDbEntity
8
1
100
AcDbVertex
100
AcDb2dVertex
62
5
10
135.362500
20
246.312500
0
VERTEX
5
320
100
AcDbEntity
8
1
100
AcDbVertex
100
AcDb2dVertex
62
5
10
134.737500
20
246.625000
0
VERTEX
5
321
100
AcDbEntity
8
1
100
AcDbVertex
100
AcDb2dVertex
62
5
10
133.487500
20
246.625000
0
VERTEX
5
322
100
AcDbEntity
8
1
100
AcDbVertex
100
AcDb2dVertex
62
5
10
132.550000
20
246.312500
0
SEQEND
5
323
100
AcDbEntity
8
1
0
POLYLINE
5
324
100
AcDbEntity
8
1
6
DOT2
62
5
100
AcDb2dPolyline
66
1
10
0.0
20
0.0
30
0.0
70
0
0
VERTEX
5
325
100
AcDbEntity
8
1
100
AcDbVertex
100
AcDb2dVertex
62
5
10
130.050000
20
249.750000
0
VERTEX
5
326
100
AcDbEntity
8
1
100
AcDbVertex
100
AcDb2dVertex
62
5
10
127.237500
20
244.125000
0
VERTEX
5
327
100
AcDbEntity
8
1
100
AcDbVertex
100
AcDb2dVertex
62
5
10
130.987500
20
244.125000
0
SEQEND
5
328
100
AcDbEntity
8
1
0
LINE
5
329
100
AcDbEntity
8
1
100
AcDbLine
6
DOT2
62
5
10
130.050000
20
249.750000
11
130.050000
21
242.250000
0
LINE
5
32a
100
AcDbEntity
8
1
100
AcDbLine
6
DOT2
62
5
10
129.425000
20
242.250000
11
130.675000
21
242.250000
0
LINE
5
32b
100
AcDbEntity
8
1
100
AcDbLine
6
CONTINUOUS
62
5
10
149.599997
20
216.000000
11
149.599997
21
213.250001
0
ARC
5
32c
100
AcDbEntity
8
1
100
AcDbCircle
6
CONTINUOUS
62
5
10
145.299947
20
208.639519
40
1.000044
100
AcDbArc
50
0.001447
51
39.643958
0
LINE
5
32d
100
AcDbEntity
8
1
100
AcDbLine
6
CONTINUOUS
62
5
10
146.070005
20
209.277562
11
140.799913
21
215.638018
0
ARC
5
32e
100
AcDbEntity
8
1
100
AcDbCircle
6
CONTINUOUS
62
5
10
140.029892
20
215.000000
40
1.000000
100
AcDbArc
50
39.644175
51
89.999999
0
ARC
5
32f
100
AcDbEntity
8
1
100
AcDbCircle
6
CONTINUOUS
62
5
10
151.199982
20
199.500005
40
0.500000
100
AcDbArc
50
-0.000000
51
89.999999
0
LINE
5
330
100
AcDbEntity
8
1
100
AcDbLine
6
CONTINUOUS
62
5
10
151.199982
20
200.000005
11
150.399982
21
200.000005
0
ARC
5
331
100
AcDbEntity
8
1
100
AcDbCircle
6
CONTINUOUS
62
5
10
150.299940
20
190.299976
40
0.500056
100
AcDbArc
50
0.004786
51
73.288769
0
LINE
5
332
100
AcDbEntity
8
1
100
AcDbLine
6
CONTINUOUS
62
5
10
150.799996
20
190.300017
11
150.799983
21
188.150017
0
LINE
5
333
100
AcDbEntity
8
1
100
AcDbLine
6
CONTINUOUS
62
5
10
149.999982
20
192.000007
11
149.999982
21
191.200000
0
LINE
5
334
100
AcDbEntity
8
1
100
AcDbLine
6
CONTINUOUS
62
5
10
144.999984
20
196.950006
11
145.249984
21
196.350006
0
LINE
5
335
100
AcDbEntity
8
1
100
AcDbLine
6
CONTINUOUS
62
5
10
138.999986
20
196.750006
11
138.749986
21
196.350006
0
ARC
5
336
100
AcDbEntity
8
1
100
AcDbCircle
6
CONTINUOUS
62
5
10
139.499986
20
201.050004
40
0.500000
100
AcDbArc
50
89.999999
51
-179.999998
0
LINE
5
337
100
AcDbEntity
8
1
100
AcDbLine
6
CONTINUOUS
62
5
10
139.499986
20
201.550004
11
144.499984
21
201.550004
0
ARC
5
338
100
AcDbEntity
8
1
100
AcDbCircle
6
CONTINUOUS
62
5
10
144.499984
20
201.050004
40
0.500000
100
AcDbArc
50
-0.000000
51
89.999999
0
POLYLINE
5
339
100
AcDbEntity
8
1
6
CONTINUOUS
62
5
100
AcDb2dPolyline
66
1
10
0.0
20
0.0
30
0.0
70
0
0
VERTEX
5
33a
100
AcDbEntity
8
1
100
AcDbVertex
100
AcDb2dVertex
62
5
10
144.999984
20
201.050004
0
VERTEX
5
33b
100
AcDbEntity
8
1
100
AcDbVertex
100
AcDb2dVertex
62
5
10
144.999984
20
196.950006
0
VERTEX
5
33c
100
AcDbEntity
8
1
100
AcDbVertex
100
AcDb2dVertex
62
5
10
140.999985
20
196.950006
0
SEQEND
5
33d
100
AcDbEntity
8
1
0
POLYLINE
5
33e
100
AcDbEntity
8
1
6
CONTINUOUS
62
5
100
AcDb2dPolyline
66
1
10
0.0
20
0.0
30
0.0
70
0
0
VERTEX
5
33f
100
AcDbEntity
8
1
100
AcDbVertex
100
AcDb2dVertex
62
5
10
144.999984
20
198.750005
0
VERTEX
5
340
100
AcDbEntity
8
1
100
AcDbVertex
100
AcDb2dVertex
62
5
10
143.499984
20
199.750005
0
VERTEX
5
341
100
AcDbEntity
8
1
100
AcDbVertex
100
AcDb2dVertex
62
5
10
140.999985
20
199.750005
0
VERTEX
5
342
100
AcDbEntity
8
1
100
AcDbVertex
100
AcDb2dVertex
62
5
10
140.999985
20
196.750006
0
VERTEX
5
343
100
AcDbEntity
8
1
100
AcDbVertex
100
AcDb2dVertex
62
5
10
138.999986
20
196.750006
0
VERTEX
5
344
100
AcDbEntity
8
1
100
AcDbVertex
100
AcDb2dVertex
62
5
10
138.999986
20
201.050004
0
SEQEND
5
345
100
AcDbEntity
8
1
0
ARC
5
346
100
AcDbEntity
8
1
100
AcDbCircle
6
CONTINUOUS
62
5
10
144.499984
20
201.050004
40
0.750000
100
AcDbArc
50
0.000000
51
89.999999
0
LINE
5
347
100
AcDbEntity
8
1
100
AcDbLine
6
CONTINUOUS
62
5
10
144.499984
20
201.800004
11
139.499986
21
201.800004
0
ARC
5
348
100
AcDbEntity
8
1
100
AcDbCircle
6
CONTINUOUS
62
5
10
139.499986
20
201.050004
40
0.750000
100
AcDbArc
50
89.999999
51
-179.999998
0
POLYLINE
5
349
100
AcDbEntity
8
1
6
CONTINUOUS
62
5
100
AcDb2dPolyline
66
1
10
0.0
20
0.0
30
0.0
70
0
0
VERTEX
5
34a
100
AcDbEntity
8
1
100
AcDbVertex
100
AcDb2dVertex
62
5
10
138.749986
20
201.050004
0
VERTEX
5
34b
100
AcDbEntity
8
1
100
AcDbVertex
100
AcDb2dVertex
62
5
10
138.749986
20
196.350006
0
VERTEX
5
34c
100
AcDbEntity
8
1
100
AcDbVertex
100
AcDb2dVertex
62
5
10
145.249984
20
196.350006
0
VERTEX
5
34d
100
AcDbEntity
8
1
100
AcDbVertex
100
AcDb2dVertex
62
5
10
145.249984
20
201.050004
0
SEQEND
5
34e
100
AcDbEntity
8
1
0
LINE
5
34f
100
AcDbEntity
8
1
100
AcDbLine
6
CONTINUOUS
62
5
10
143.999984
20
194.700017
11
144.099984
21
194.900017
0
LINE
5
350
100
AcDbEntity
8
1
100
AcDbLine
6
CONTINUOUS
62
5
10
143.999984
20
194.000000
11
142.259931
21
194.000000
0
LINE
5
351
100
AcDbEntity
8
1
100
AcDbLine
6
CONTINUOUS
62
5
10
143.499997
20
190.600000
11
143.999997
21
190.100000
0
LINE
5
352
100
AcDbEntity
8
1
100
AcDbLine
6
CONTINUOUS
62
5
10
144.499984
20
191.000008
11
144.599984
21
191.100008
0
LINE
5
353
100
AcDbEntity
8
1
100
AcDbLine
6
CONTINUOUS
62
5
10
143.999997
20
184.900000
11
143.499997
21
184.400000
0
POLYLINE
5
354
100
AcDbEntity
8
1
6
CONTINUOUS
62
5
100
AcDb2dPolyline
66
1
10
0.0
20
0.0
30
0.0
70
0
0
VERTEX
5
355
100
AcDbEntity
8
1
100
AcDbVertex
100
AcDb2dVertex
62
5
10
144.499984
20
190.100000
0
VERTEX
5
356
100
AcDbEntity
8
1
100
AcDbVertex
100
AcDb2dVertex
62
5
10
143.999997
20
190.100000
0
VERTEX
5
357
100
AcDbEntity
8
1
100
AcDbVertex
100
AcDb2dVertex
62
5
10
143.999997
20
184.900000
0
VERTEX
5
358
100
AcDbEntity
8
1
100
AcDbVertex
100
AcDb2dVertex
62
5
10
144.499984
20
184.900000
0
SEQEND
5
359
100
AcDbEntity
8
1
0
POLYLINE
5
35a
100
AcDbEntity
8
1
6
CONTINUOUS
62
5
100
AcDb2dPolyline
66
1
10
0.0
20
0.0
30
0.0
70
0
0
VERTEX
5
35b
100
AcDbEntity
8
1
100
AcDbVertex
100
AcDb2dVertex
62
5
10
144.499984
20
190.600000
0
VERTEX
5
35c
100
AcDbEntity
8
1
100
AcDbVertex
100
AcDb2dVertex
62
5
10
143.499997
20
190.600000
0
VERTEX
5
35d
100
AcDbEntity
8
1
100
AcDbVertex
100
AcDb2dVertex
62
5
10
143.499997
20
190.500000
0
VERTEX
5
35e
100
AcDbEntity
8
1
100
AcDbVertex
100
AcDb2dVertex
62
5
10
142.499997
20
190.500000
0
SEQEND
5
35f
100
AcDbEntity
8
1
0
ARC
5
360
100
AcDbEntity
8
1
100
AcDbCircle
6
CONTINUOUS
62
5
10
142.999997
20
191.900000
40
0.500000
100
AcDbArc
50
179.999998
51
-89.999999
0
LINE
5
361
100
AcDbEntity
8
1
100
AcDbLine
6
CONTINUOUS
62
5
10
142.999997
20
191.400000
11
144.010088
21
191.400000
0
POLYLINE
5
362
100
AcDbEntity
8
1
6
CONTINUOUS
62
5
100
AcDb2dPolyline
66
1
10
0.0
20
0.0
30
0.0
70
0
0
VERTEX
5
363
100
AcDbEntity
8
1
100
AcDbVertex
100
AcDb2dVertex
62
5
10
144.499984
20
184.400000
0
VERTEX
5
364
100
AcDbEntity
8
1
100
AcDbVertex
100
AcDb2dVertex
62
5
10
143.499997
20
184.400000
0
VERTEX
5
365
100
AcDbEntity
8
1
100
AcDbVertex
100
AcDb2dVertex
62
5
10
143.499997
20
184.500000
0
VERTEX
5
366
100
AcDbEntity
8
1
100
AcDbVertex
100
AcDb2dVertex
62
5
10
142.499997
20
184.500000
0
SEQEND
5
367
100
AcDbEntity
8
1
0
ARC
5
368
100
AcDbEntity
8
1
100
AcDbCircle
6
CONTINUOUS
62
5
10
142.999997
20
192.750000
40
0.500000
100
AcDbArc
50
89.999999
51
179.999998
0
LINE
5
369
100
AcDbEntity
8
1
100
AcDbLine
6
CONTINUOUS
62
5
10
143.999984
20
193.250000
11
142.999997
21
193.250000
0
LINE
5
36a
100
AcDbEntity
8
1
100
AcDbLine
6
CONTINUOUS
62
5
10
133.749997
20
183.200000
11
134.249997
21
183.200000
0
LINE
5
36b
100
AcDbEntity
8
1
100
AcDbLine
6
CONTINUOUS
62
5
10
133.749997
20
183.200000
11
134.249997
21
183.200000
0
LINE
5
36c
100
AcDbEntity
8
1
100
AcDbLine
6
CONTINUOUS
62
5
10
135.649997
20
183.200000
11
135.949997
21
183.200000
0
LINE
5
36d
100
AcDbEntity
8
1
100
AcDbLine
6
CONTINUOUS
62
5
10
135.649997
20
183.200000
11
135.949997
21
183.200000
0
LINE
5
36e
100
AcDbEntity
8
1
100
AcDbLine
6
CONTINUOUS
62
5
10
148.399983
20
192.100007
11
148.499983
21
192.000007
0
ARC
5
36f
100
AcDbEntity
8
1
100
AcDbCircle
6
CONTINUOUS
62
5
10
149.299997
20
187.400000
40
1.000000
100
AcDbArc
50
89.999999
51
143.131413
0
LINE
5
370
100
AcDbEntity
8
1
100
AcDbLine
6
CONTINUOUS
62
5
10
149.299997
20
188.400000
11
149.949997
21
188.400000
0
ARC
5
371
100
AcDbEntity
8
1
100
AcDbCircle
6
CONTINUOUS
62
5
10
149.949997
20
188.900000
40
0.500000
100
AcDbArc
50
-89.999999
51
0.000000
0
LINE
5
372
100
AcDbEntity
8
1
100
AcDbLine
6
CONTINUOUS
62
5
10
150.449997
20
188.900000
11
150.449997
21
190.700000
0
ARC
5
373
100
AcDbEntity
8
1
100
AcDbCircle
6
CONTINUOUS
62
5
10
149.949997
20
190.700000
40
0.500000
100
AcDbArc
50
0.000000
51
89.999999
0
LINE
5
374
100
AcDbEntity
8
1
100
AcDbLine
6
CONTINUOUS
62
5
10
149.949997
20
191.200000
11
149.299997
21
191.200000
0
ARC
5
375
100
AcDbEntity
8
1
100
AcDbCircle
6
CONTINUOUS
62
5
10
149.299997
20
192.200000
40
1.000000
100
AcDbArc
50
-143.131413
51
-89.999999
0
ARC
5
376
100
AcDbEntity
8
1
100
AcDbCircle
6
CONTINUOUS
62
5
10
147.999983
20
202.000004
40
0.500000
100
AcDbArc
50
0.000000
51
89.999999
0
LINE
5
377
100
AcDbEntity
8
1
100
AcDbLine
6
CONTINUOUS
62
5
10
148.499983
20
201.200004
11
148.499983
21
202.000004
0
ARC
5
378
100
AcDbEntity
8
1
100
AcDbCircle
6
CONTINUOUS
62
5
10
116.970086
20
215.000000
40
1.000000
100
AcDbArc
50
89.999999
51
140.355824
0
LINE
5
379
100
AcDbEntity
8
1
100
AcDbLine
6
CONTINUOUS
62
5
10
116.200064
20
215.638018
11
110.929973
21
209.277562
0
ARC
5
37a
100
AcDbEntity
8
1
100
AcDbCircle
6
CONTINUOUS
62
5
10
111.878899
20
208.536779
40
1.203837
100
AcDbArc
50
142.022473
51
175.102962
0
LINE
5
37b
100
AcDbEntity
8
1
100
AcDbLine
6
CONTINUOUS
62
5
10
117.999989
20
196.950006
11
118.249989
21
196.350006
0
LINE
5
37c
100
AcDbEntity
8
1
100
AcDbLine
6
CONTINUOUS
62
5
10
111.999991
20
196.750006
11
111.749991
21
196.350006
0
ARC
5
37d
100
AcDbEntity
8
1
100
AcDbCircle
6
CONTINUOUS
62
5
10
112.499991
20
201.050004
40
0.500000
100
AcDbArc
50
89.999999
51
-179.999998
0
LINE
5
37e
100
AcDbEntity
8
1
100
AcDbLine
6
CONTINUOUS
62
5
10
112.499991
20
201.550004
11
117.499989
21
201.550004
0
ARC
5
37f
100
AcDbEntity
8
1
100
AcDbCircle
6
CONTINUOUS
62
5
10
117.499989
20
201.050004
40
0.500000
100
AcDbArc
50
-0.000000
51
89.999999
0
POLYLINE
5
380
100
AcDbEntity
8
1
6
CONTINUOUS
62
5
100
AcDb2dPolyline
66
1
10
0.0
20
0.0
30
0.0
70
0
0
VERTEX
5
381
100
AcDbEntity
8
1
100
AcDbVertex
100
AcDb2dVertex
62
5
10
117.999989
20
201.050004
0
VERTEX
5
382
100
AcDbEntity
8
1
100
AcDbVertex
100
AcDb2dVertex
62
5
10
117.999989
20
196.950006
0
VERTEX
5
383
100
AcDbEntity
8
1
100
AcDbVertex
100
AcDb2dVertex
62
5
10
113.999990
20
196.950006
0
SEQEND
5
384
100
AcDbEntity
8
1
0
POLYLINE
5
385
100
AcDbEntity
8
1
6
CONTINUOUS
62
5
100
AcDb2dPolyline
66
1
10
0.0
20
0.0
30
0.0
70
0
0
VERTEX
5
386
100
AcDbEntity
8
1
100
AcDbVertex
100
AcDb2dVertex
62
5
10
117.999989
20
198.750005
0
VERTEX
5
387
100
AcDbEntity
8
1
100
AcDbVertex
100
AcDb2dVertex
62
5
10
116.499989
20
199.750005
0
VERTEX
5
388
100
AcDbEntity
8
1
100
AcDbVertex
100
AcDb2dVertex
62
5
10
113.999990
20
199.750005
0
VERTEX
5
389
100
AcDbEntity
8
1
100
AcDbVertex
100
AcDb2dVertex
62
5
10
113.999990
20
196.750006
0
VERTEX
5
38a
100
AcDbEntity
8
1
100
AcDbVertex
100
AcDb2dVertex
62
5
10
111.999991
20
196.750006
0
VERTEX
5
38b
100
AcDbEntity
8
1
100
AcDbVertex
100
AcDb2dVertex
62
5
10
111.999991
20
201.050004
0
SEQEND
5
38c
100
AcDbEntity
8
1
0
ARC
5
38d
100
AcDbEntity
8
1
100
AcDbCircle
6
CONTINUOUS
62
5
10
117.499989
20
201.050004
40
0.750000
100
AcDbArc
50
0.000000
51
89.999999
0
LINE
5
38e
100
AcDbEntity
8
1
100
AcDbLine
6
CONTINUOUS
62
5
10
117.499989
20
201.800004
11
112.499991
21
201.800004
0
ARC
5
38f
100
AcDbEntity
8
1
100
AcDbCircle
6
CONTINUOUS
62
5
10
112.499991
20
201.050004
40
0.750000
100
AcDbArc
50
89.999999
51
-179.999998
0
POLYLINE
5
390
100
AcDbEntity
8
1
6
CONTINUOUS
62
5
100
AcDb2dPolyline
66
1
10
0.0
20
0.0
30
0.0
70
0
0
VERTEX
5
391
100
AcDbEntity
8
1
100
AcDbVertex
100
AcDb2dVertex
62
5
10
111.749991
20
201.050004
0
VERTEX
5
392
100
AcDbEntity
8
1
100
AcDbVertex
100
AcDb2dVertex
62
5
10
111.749991
20
196.350006
0
VERTEX
5
393
100
AcDbEntity
8
1
100
AcDbVertex
100
AcDb2dVertex
62
5
10
118.249989
20
196.350006
0
VERTEX
5
394
100
AcDbEntity
8
1
100
AcDbVertex
100
AcDb2dVertex
62
5
10
118.249989
20
201.050004
0
SEQEND
5
395
100
AcDbEntity
8
1
0
LINE
5
396
100
AcDbEntity
8
1
100
AcDbLine
6
CONTINUOUS
62
5
10
121.049997
20
183.200000
11
121.349997
21
183.200000
0
LINE
5
397
100
AcDbEntity
8
1
100
AcDbLine
6
CONTINUOUS
62
5
10
121.049997
20
183.200000
11
121.349997
21
183.200000
0
LINE
5
398
100
AcDbEntity
8
1
100
AcDbLine
6
CONTINUOUS
62
5
10
114.099993
20
194.900017
11
114.199993
21
194.700017
0
LINE
5
399
100
AcDbEntity
8
1
100
AcDbLine
6
CONTINUOUS
62
5
10
112.399994
20
191.100008
11
112.499994
21
191.000008
0
POLYLINE
5
39a
100
AcDbEntity
8
1
6
CONTINUOUS
62
5
100
AcDb2dPolyline
66
1
10
0.0
20
0.0
30
0.0
70
0
0
VERTEX
5
39b
100
AcDbEntity
8
1
100
AcDbVertex
100
AcDb2dVertex
62
5
10
112.499994
20
190.100000
0
VERTEX
5
39c
100
AcDbEntity
8
1
100
AcDbVertex
100
AcDb2dVertex
62
5
10
112.999997
20
190.100000
0
VERTEX
5
39d
100
AcDbEntity
8
1
100
AcDbVertex
100
AcDb2dVertex
62
5
10
112.999997
20
184.900000
0
VERTEX
5
39e
100
AcDbEntity
8
1
100
AcDbVertex
100
AcDb2dVertex
62
5
10
112.499994
20
184.900000
0
SEQEND
5
39f
100
AcDbEntity
8
1
0
LINE
5
3a0
100
AcDbEntity
8
1
100
AcDbLine
6
CONTINUOUS
62
5
10
108.499989
20
188.000010
11
108.599989
21
187.900010
0
LINE
5
3a1
100
AcDbEntity
8
1
100
AcDbLine
6
CONTINUOUS
62
5
10
108.599989
20
191.400017
11
108.499989
21
191.300018
0
LINE
5
3a2
100
AcDbEntity
8
1
100
AcDbLine
6
CONTINUOUS
62
5
10
107.499989
20
191.300017
11
107.499989
21
191.200000
0
LINE
5
3a3
100
AcDbEntity
8
1
100
AcDbLine
6
CONTINUOUS
62
5
10
107.499989
20
188.400000
11
107.499989
21
188.000010
0
ARC
5
3a4
100
AcDbEntity
8
1
100
AcDbCircle
6
CONTINUOUS
62
5
10
107.699997
20
192.200000
40
1.000000
100
AcDbArc
50
-89.999999
51
-64.155694
0
LINE
5
3a5
100
AcDbEntity
8
1
100
AcDbLine
6
CONTINUOUS
62
5
10
107.699997
20
191.200000
11
107.049997
21
191.200000
0
ARC
5
3a6
100
AcDbEntity
8
1
100
AcDbCircle
6
CONTINUOUS
62
5
10
107.049997
20
190.700000
40
0.500000
100
AcDbArc
50
89.999999
51
-179.999998
0
LINE
5
3a7
100
AcDbEntity
8
1
100
AcDbLine
6
CONTINUOUS
62
5
10
106.549997
20
190.700000
11
106.549997
21
188.900000
0
ARC
5
3a8
100
AcDbEntity
8
1
100
AcDbCircle
6
CONTINUOUS
62
5
10
107.049997
20
188.900000
40
0.500000
100
AcDbArc
50
-179.999998
51
-89.999999
0
LINE
5
3a9
100
AcDbEntity
8
1
100
AcDbLine
6
CONTINUOUS
62
5
10
107.049997
20
188.400000
11
107.699997
21
188.400000
0
ARC
5
3aa
100
AcDbEntity
8
1
100
AcDbCircle
6
CONTINUOUS
62
5
10
107.699997
20
187.400000
40
1.000000
100
AcDbArc
50
36.870636
51
89.999999
0
LINE
5
3ab
100
AcDbEntity
8
1
100
AcDbLine
6
CONTINUOUS
62
5
10
113.499997
20
190.600000
11
112.999997
21
190.100000
0
LINE
5
3ac
100
AcDbEntity
8
1
100
AcDbLine
6
CONTINUOUS
62
5
10
113.499997
20
184.400000
11
112.999997
21
184.900000
0
LINE
5
3ad
100
AcDbEntity
8
1
100
AcDbLine
6
CONTINUOUS
62
5
10
114.199993
20
194.000000
11
114.740062
21
194.000000
0
ARC
5
3ae
100
AcDbEntity
8
1
100
AcDbCircle
6
CONTINUOUS
62
5
10
113.999997
20
191.900000
40
0.500000
100
AcDbArc
50
-66.870467
51
0.000000
0
POLYLINE
5
3af
100
AcDbEntity
8
1
6
CONTINUOUS
62
5
100
AcDb2dPolyline
66
1
10
0.0
20
0.0
30
0.0
70
0
0
VERTEX
5
3b0
100
AcDbEntity
8
1
100
AcDbVertex
100
AcDb2dVertex
62
5
10
114.499997
20
190.500000
0
VERTEX
5
3b1
100
AcDbEntity
8
1
100
AcDbVertex
100
AcDb2dVertex
62
5
10
113.499997
20
190.500000
0
VERTEX
5
3b2
100
AcDbEntity
8
1
100
AcDbVertex
100
AcDb2dVertex
62
5
10
113.499997
20
190.600000
0
VERTEX
5
3b3
100
AcDbEntity
8
1
100
AcDbVertex
100
AcDb2dVertex
62
5
10
112.499994
20
190.600000
0
SEQEND
5
3b4
100
AcDbEntity
8
1
0
POLYLINE
5
3b5
100
AcDbEntity
8
1
6
CONTINUOUS
62
5
100
AcDb2dPolyline
66
1
10
0.0
20
0.0
30
0.0
70
0
0
VERTEX
5
3b6
100
AcDbEntity
8
1
100
AcDbVertex
100
AcDb2dVertex
62
5
10
112.499994
20
184.400000
0
VERTEX
5
3b7
100
AcDbEntity
8
1
100
AcDbVertex
100
AcDb2dVertex
62
5
10
113.499997
20
184.400000
0
VERTEX
5
3b8
100
AcDbEntity
8
1
100
AcDbVertex
100
AcDb2dVertex
62
5
10
113.499997
20
184.500000
0
VERTEX
5
3b9
100
AcDbEntity
8
1
100
AcDbVertex
100
AcDb2dVertex
62
5
10
114.499997
20
184.500000
0
SEQEND
5
3ba
100
AcDbEntity
8
1
0
ARC
5
3bb
100
AcDbEntity
8
1
100
AcDbCircle
6
CONTINUOUS
62
5
10
113.999997
20
192.750000
40
0.500000
100
AcDbArc
50
-0.000000
51
66.422252
0
LINE
5
3bc
100
AcDbEntity
8
1
100
AcDbLine
6
CONTINUOUS
62
5
10
122.749997
20
183.200000
11
123.249997
21
183.200000
0
LINE
5
3bd
100
AcDbEntity
8
1
100
AcDbLine
6
CONTINUOUS
62
5
10
122.749997
20
183.200000
11
123.249997
21
183.200000
0
ARC
5
3be
100
AcDbEntity
8
1
100
AcDbCircle
6
CONTINUOUS
62
5
10
106.299996
20
199.500005
40
0.500000
100
AcDbArc
50
89.999999
51
-179.999998
0
LINE
5
3bf
100
AcDbEntity
8
1
100
AcDbLine
6
CONTINUOUS
62
5
10
107.099995
20
200.000005
11
106.299996
21
200.000005
0
ARC
5
3c0
100
AcDbEntity
8
1
100
AcDbCircle
6
CONTINUOUS
62
5
10
106.299996
20
187.500010
40
0.500000
100
AcDbArc
50
89.999999
51
-179.999998
0
POLYLINE
5
3c1
100
AcDbEntity
8
1
6
CONTINUOUS
62
5
100
AcDb2dPolyline
66
1
10
0.0
20
0.0
30
0.0
70
0
0
VERTEX
5
3c2
100
AcDbEntity
8
1
100
AcDbVertex
100
AcDb2dVertex
62
5
10
106.299996
20
188.000010
0
VERTEX
5
3c3
100
AcDbEntity
8
1
100
AcDbVertex
100
AcDb2dVertex
62
5
10
108.499989
20
188.000010
0
VERTEX
5
3c4
100
AcDbEntity
8
1
100
AcDbVertex
100
AcDb2dVertex
62
5
10
108.499989
20
191.300018
0
VERTEX
5
3c5
100
AcDbEntity
8
1
100
AcDbVertex
100
AcDb2dVertex
62
5
10
106.299996
20
191.300017
0
SEQEND
5
3c6
100
AcDbEntity
8
1
0
ARC
5
3c7
100
AcDbEntity
8
1
100
AcDbCircle
6
CONTINUOUS
62
5
10
106.299996
20
191.800017
40
0.500000
100
AcDbArc
50
-179.681193
51
-89.999999
0
ARC
5
3c8
100
AcDbEntity
8
1
100
AcDbCircle
6
CONTINUOUS
62
5
10
108.999995
20
202.000004
40
0.500000
100
AcDbArc
50
89.999999
51
-179.999998
0
LINE
5
3c9
100
AcDbEntity
8
1
100
AcDbLine
6
CONTINUOUS
62
5
10
108.499995
20
202.000004
11
108.499995
21
201.200004
0
CIRCLE
5
3ca
100
AcDbEntity
8
1
100
AcDbCircle
6
CONTINUOUS
62
5
10
128.499997
20
210.500002
40
1.500000
0
ARC
5
3cb
100
AcDbEntity
8
1
100
AcDbCircle
6
CONTINUOUS
62
5
10
131.999988
20
201.750004
40
2.499999
100
AcDbArc
50
-89.999999
51
89.999999
0
LINE
5
3cc
100
AcDbEntity
8
1
100
AcDbLine
6
CONTINUOUS
62
5
10
131.999988
20
199.250005
11
126.499989
21
199.250005
0
ARC
5
3cd
100
AcDbEntity
8
1
100
AcDbCircle
6
CONTINUOUS
62
5
10
126.499989
20
201.750004
40
2.499999
100
AcDbArc
50
89.999999
51
-89.999999
0
LINE
5
3ce
100
AcDbEntity
8
1
100
AcDbLine
6
CONTINUOUS
62
5
10
126.499989
20
204.250004
11
131.999988
21
204.250004
0
ARC
5
3cf
100
AcDbEntity
8
1
100
AcDbCircle
6
CONTINUOUS
62
5
10
131.999988
20
201.750004
40
3.749999
100
AcDbArc
50
-89.999999
51
89.999999
0
LINE
5
3d0
100
AcDbEntity
8
1
100
AcDbLine
6
CONTINUOUS
62
5
10
131.999988
20
198.000005
11
126.499989
21
198.000005
0
ARC
5
3d1
100
AcDbEntity
8
1
100
AcDbCircle
6
CONTINUOUS
62
5
10
126.499989
20
201.750004
40
3.749999
100
AcDbArc
50
89.999999
51
-89.999999
0
LINE
5
3d2
100
AcDbEntity
8
1
100
AcDbLine
6
CONTINUOUS
62
5
10
126.499989
20
205.500003
11
131.999988
21
205.500003
0
ARC
5
3d3
100
AcDbEntity
8
1
100
AcDbCircle
6
CONTINUOUS
62
5
10
131.999988
20
201.750004
40
4.299999
100
AcDbArc
50
-89.999999
51
89.999999
0
LINE
5
3d4
100
AcDbEntity
8
1
100
AcDbLine
6
CONTINUOUS
62
5
10
131.999988
20
197.450006
11
126.499989
21
197.450006
0
ARC
5
3d5
100
AcDbEntity
8
1
100
AcDbCircle
6
CONTINUOUS
62
5
10
126.499989
20
201.750004
40
4.299999
100
AcDbArc
50
89.999999
51
-89.999999
0
LINE
5
3d6
100
AcDbEntity
8
1
100
AcDbLine
6
CONTINUOUS
62
5
10
126.499989
20
206.050003
11
131.999988
21
206.050003
0
ARC
5
3d7
100
AcDbEntity
8
1
100
AcDbCircle
6
CONTINUOUS
62
5
10
126.499989
20
201.750004
40
4.399999
100
AcDbArc
50
89.999999
51
-89.999999
0
LINE
5
3d8
100
AcDbEntity
8
1
100
AcDbLine
6
CONTINUOUS
62
5
10
126.499989
20
197.350006
11
131.999988
21
197.350006
0
ARC
5
3d9
100
AcDbEntity
8
1
100
AcDbCircle
6
CONTINUOUS
62
5
10
131.999988
20
201.750004
40
4.399999
100
AcDbArc
50
-89.999999
51
89.999999
0
LINE
5
3da
100
AcDbEntity
8
1
100
AcDbLine
6
CONTINUOUS
62
5
10
142.985707
20
212.999983
11
114.001709
21
212.999983
0
ARC
5
3db
100
AcDbEntity
8
1
100
AcDbCircle
6
CONTINUOUS
62
5
10
145.799984
20
205.650003
40
0.500000
100
AcDbArc
50
0.000000
51
89.999999
0
LINE
5
3dc
100
AcDbEntity
8
1
100
AcDbLine
6
CONTINUOUS
62
5
10
145.799984
20
206.150003
11
111.199994
21
206.150003
0
ARC
5
3dd
100
AcDbEntity
8
1
100
AcDbCircle
6
CONTINUOUS
62
5
10
111.199994
20
205.650003
40
0.500000
100
AcDbArc
50
89.999999
51
179.999998
0
LINE
5
3de
100
AcDbEntity
8
1
100
AcDbLine
6
CONTINUOUS
62
5
10
108.300003
20
216.500000
11
108.300003
21
243.000000
0
LINE
5
3df
100
AcDbEntity
8
1
100
AcDbLine
6
CONTINUOUS
62
5
10
154.299997
20
216.500000
11
154.299997
21
243.000000
0
POLYLINE
5
3e0
100
AcDbEntity
8
1
6
CONTINUOUS
62
5
100
AcDb2dPolyline
66
1
10
0.0
20
0.0
30
0.0
70
0
0
VERTEX
5
3e1
100
AcDbEntity
8
1
100
AcDbVertex
100
AcDb2dVertex
62
5
10
131.300000
20
241.000000
0
VERTEX
5
3e2
100
AcDbEntity
8
1
100
AcDbVertex
100
AcDb2dVertex
62
5
10
108.300003
20
241.000000
0
VERTEX
5
3e3
100
AcDbEntity
8
1
100
AcDbVertex
100
AcDb2dVertex
62
5
10
114.300003
20
242.000000
0
VERTEX
5
3e4
100
AcDbEntity
8
1
100
AcDbVertex
100
AcDb2dVertex
62
5
10
114.300003
20
240.000000
0
VERTEX
5
3e5
100
AcDbEntity
8
1
100
AcDbVertex
100
AcDb2dVertex
62
5
10
108.300003
20
241.000000
0
VERTEX
5
3e6
100
AcDbEntity
8
1
100
AcDbVertex
100
AcDb2dVertex
62
5
10
114.300003
20
241.500000
0
VERTEX
5
3e7
100
AcDbEntity
8
1
100
AcDbVertex
100
AcDb2dVertex
62
5
10
114.300003
20
240.500000
0
VERTEX
5
3e8
100
AcDbEntity
8
1
100
AcDbVertex
100
AcDb2dVertex
62
5
10
108.300003
20
241.000000
0
SEQEND
5
3e9
100
AcDbEntity
8
1
0
POLYLINE
5
3ea
100
AcDbEntity
8
1
6
CONTINUOUS
62
5
100
AcDb2dPolyline
66
1
10
0.0
20
0.0
30
0.0
70
0
0
VERTEX
5
3eb
100
AcDbEntity
8
1
100
AcDbVertex
100
AcDb2dVertex
62
5
10
131.300000
20
241.000000
0
VERTEX
5
3ec
100
AcDbEntity
8
1
100
AcDbVertex
100
AcDb2dVertex
62
5
10
154.299997
20
241.000000
0
VERTEX
5
3ed
100
AcDbEntity
8
1
100
AcDbVertex
100
AcDb2dVertex
62
5
10
148.299997
20
240.000000
0
VERTEX
5
3ee
100
AcDbEntity
8
1
100
AcDbVertex
100
AcDb2dVertex
62
5
10
148.299997
20
242.000000
0
VERTEX
5
3ef
100
AcDbEntity
8
1
100
AcDbVertex
100
AcDb2dVertex
62
5
10
154.299997
20
241.000000
0
VERTEX
5
3f0
100
AcDbEntity
8
1
100
AcDbVertex
100
AcDb2dVertex
62
5
10
148.299997
20
240.500000
0
VERTEX
5
3f1
100
AcDbEntity
8
1
100
AcDbVertex
100
AcDb2dVertex
62
5
10
148.299997
20
241.500000
0
VERTEX
5
3f2
100
AcDbEntity
8
1
100
AcDbVertex
100
AcDb2dVertex
62
5
10
154.299997
20
241.000000
0
SEQEND
5
3f3
100
AcDbEntity
8
1
0
POLYLINE
5
3f4
100
AcDbEntity
8
1
6
CONTINUOUS
62
5
100
AcDb2dPolyline
66
1
10
0.0
20
0.0
30
0.0
70
0
0
VERTEX
5
3f5
100
AcDbEntity
8
1
100
AcDbVertex
100
AcDb2dVertex
62
5
10
165.750000
20
337.125000
0
VERTEX
5
3f6
100
AcDbEntity
8
1
100
AcDbVertex
100
AcDb2dVertex
62
5
10
169.750000
20
337.125000
0
VERTEX
5
3f7
100
AcDbEntity
8
1
100
AcDbVertex
100
AcDb2dVertex
62
5
10
169.750000
20
332.750000
0
VERTEX
5
3f8
100
AcDbEntity
8
1
100
AcDbVertex
100
AcDb2dVertex
62
5
10
165.750000
20
332.750000
0
SEQEND
5
3f9
100
AcDbEntity
8
1
0
LINE
5
3fa
100
AcDbEntity
8
1
100
AcDbLine
6
CONTINUOUS
62
5
10
10.000000
20
318.000000
11
330.000000
21
318.000000
0
LINE
5
3fb
100
AcDbEntity
8
1
100
AcDbLine
6
CONTINUOUS
62
5
10
217.199997
20
177.700017
11
217.999997
21
177.700017
0
ARC
5
3fc
100
AcDbEntity
8
1
100
AcDbCircle
6
CONTINUOUS
62
5
10
231.999997
20
168.000017
40
1.000000
100
AcDbArc
50
0.000000
51
89.999999
0
POLYLINE
5
3fd
100
AcDbEntity
8
1
6
CONTINUOUS
62
5
100
AcDb2dPolyline
66
1
10
0.0
20
0.0
30
0.0
70
0
0
VERTEX
5
3fe
100
AcDbEntity
8
1
100
AcDbVertex
100
AcDb2dVertex
62
5
10
232.999997
20
168.000017
0
VERTEX
5
3ff
100
AcDbEntity
8
1
100
AcDbVertex
100
AcDb2dVertex
62
5
10
232.999997
20
160.769773
0
VERTEX
5
400
100
AcDbEntity
8
1
100
AcDbVertex
100
AcDb2dVertex
62
5
10
224.850007
20
160.981648
0
SEQEND
5
401
100
AcDbEntity
8
1
0
LINE
5
402
100
AcDbEntity
8
1
100
AcDbLine
6
CONTINUOUS
62
5
10
224.850007
20
169.000017
11
231.999997
21
169.000017
0
LINE
5
403
100
AcDbEntity
8
1
100
AcDbLine
6
CONTINUOUS
62
5
10
217.999997
20
173.999996
11
217.999997
21
174.700000
0
LINE
5
404
100
AcDbEntity
8
1
100
AcDbLine
6
CONTINUOUS
62
5
10
217.999997
20
168.300007
11
217.999997
21
168.999997
0
LINE
5
405
100
AcDbEntity
8
1
100
AcDbLine
6
CONTINUOUS
62
5
10
218.399997
20
175.199995
11
218.399997
21
173.999996
0
LINE
5
406
100
AcDbEntity
8
1
100
AcDbLine
6
CONTINUOUS
62
5
10
218.399997
20
168.999997
11
218.399997
21
167.799997
0
LINE
5
407
100
AcDbEntity
8
1
100
AcDbLine
6
CONTINUOUS
62
5
10
218.999997
20
165.199998
11
218.999997
21
167.799998
0
ARC
5
408
100
AcDbEntity
8
1
100
AcDbCircle
6
CONTINUOUS
62
5
10
215.850005
20
173.499996
40
0.500000
100
AcDbArc
50
89.999999
51
179.999998
0
LINE
5
409
100
AcDbEntity
8
1
100
AcDbLine
6
CONTINUOUS
62
5
10
215.350005
20
173.499996
11
215.350005
21
169.499997
0
ARC
5
40a
100
AcDbEntity
8
1
100
AcDbCircle
6
CONTINUOUS
62
5
10
215.850005
20
169.499997
40
0.500000
100
AcDbArc
50
179.999998
51
-90.000002
0
LINE
5
40b
100
AcDbEntity
8
1
100
AcDbLine
6
CONTINUOUS
62
5
10
217.149997
20
176.200017
11
217.199997
21
176.200017
0
LINE
5
40c
100
AcDbEntity
8
1
100
AcDbLine
6
CONTINUOUS
62
5
10
217.999997
20
174.800017
11
217.199997
21
174.800017
0
LINE
5
40d
100
AcDbEntity
8
1
100
AcDbLine
6
CONTINUOUS
62
5
10
217.199997
20
168.999997
11
217.199997
21
165.199998
0
ARC
5
40e
100
AcDbEntity
8
1
100
AcDbCircle
6
CONTINUOUS
62
5
10
216.199996
20
166.999999
40
1.000000
100
AcDbArc
50
-18.194872
51
18.194872
0
LINE
5
40f
100
AcDbEntity
8
1
100
AcDbLine
6
CONTINUOUS
62
5
10
217.149997
20
165.199998
11
217.149997
21
168.999997
0
POLYLINE
5
410
100
AcDbEntity
8
1
6
CONTINUOUS
62
5
100
AcDb2dPolyline
66
1
10
0.0
20
0.0
30
0.0
70
0
0
VERTEX
5
411
100
AcDbEntity
8
1
100
AcDbVertex
100
AcDb2dVertex
62
5
10
217.999997
20
165.199998
0
VERTEX
5
412
100
AcDbEntity
8
1
100
AcDbVertex
100
AcDb2dVertex
62
5
10
217.999997
20
168.300007
0
VERTEX
5
413
100
AcDbEntity
8
1
100
AcDbVertex
100
AcDb2dVertex
62
5
10
217.149997
20
168.300007
0
SEQEND
5
414
100
AcDbEntity
8
1
0
ARC
5
415
100
AcDbEntity
8
1
100
AcDbCircle
6
CONTINUOUS
62
5
10
220.649997
20
174.499996
40
0.500000
100
AcDbArc
50
-89.999999
51
-0.000000
0
LINE
5
416
100
AcDbEntity
8
1
100
AcDbLine
6
CONTINUOUS
62
5
10
221.149997
20
174.499996
11
221.149997
21
174.699995
0
ARC
5
417
100
AcDbEntity
8
1
100
AcDbCircle
6
CONTINUOUS
62
5
10
220.649997
20
174.699995
40
0.500000
100
AcDbArc
50
0.000000
51
89.999999
0
LINE
5
418
100
AcDbEntity
8
1
100
AcDbLine
6
CONTINUOUS
62
5
10
220.649997
20
175.199995
11
218.199997
21
175.199995
0
ARC
5
419
100
AcDbEntity
8
1
100
AcDbCircle
6
CONTINUOUS
62
5
10
218.199997
20
175.399995
40
0.200000
100
AcDbArc
50
179.999998
51
-89.999999
0
ARC
5
41a
100
AcDbEntity
8
1
100
AcDbCircle
6
CONTINUOUS
62
5
10
218.199995
20
167.599997
40
0.200000
100
AcDbArc
50
89.999999
51
-179.999998
0
LINE
5
41b
100
AcDbEntity
8
1
100
AcDbLine
6
CONTINUOUS
62
5
10
218.199995
20
167.799997
11
220.649995
21
167.799998
0
ARC
5
41c
100
AcDbEntity
8
1
100
AcDbCircle
6
CONTINUOUS
62
5
10
220.649995
20
168.299998
40
0.500000
100
AcDbArc
50
-89.999993
51
-0.000000
0
LINE
5
41d
100
AcDbEntity
8
1
100
AcDbLine
6
CONTINUOUS
62
5
10
221.149995
20
168.299998
11
221.149995
21
168.499997
0
ARC
5
41e
100
AcDbEntity
8
1
100
AcDbCircle
6
CONTINUOUS
62
5
10
220.649995
20
168.499997
40
0.500000
100
AcDbArc
50
0.000000
51
89.933642
0
POLYLINE
5
41f
100
AcDbEntity
8
1
6
CONTINUOUS
62
5
100
AcDb2dPolyline
66
1
10
0.0
20
0.0
30
0.0
70
0
0
VERTEX
5
420
100
AcDbEntity
8
1
100
AcDbVertex
100
AcDb2dVertex
62
5
10
232.999997
20
179.000017
0
VERTEX
5
421
100
AcDbEntity
8
1
100
AcDbVertex
100
AcDb2dVertex
62
5
10
232.499997
20
179.000017
0
VERTEX
5
422
100
AcDbEntity
8
1
100
AcDbVertex
100
AcDb2dVertex
62
5
10
232.499997
20
177.000017
0
VERTEX
5
423
100
AcDbEntity
8
1
100
AcDbVertex
100
AcDb2dVertex
62
5
10
232.999997
20
177.000017
0
SEQEND
5
424
100
AcDbEntity
8
1
0
LINE
5
425
100
AcDbEntity
8
1
100
AcDbLine
6
CONTINUOUS
62
5
10
218.999997
20
175.199995
11
218.999997
21
177.749993
0
LINE
5
426
100
AcDbEntity
8
1
100
AcDbLine
6
CONTINUOUS
62
5
10
217.199997
20
173.999996
11
217.199997
21
177.749993
0
ARC
5
427
100
AcDbEntity
8
1
100
AcDbCircle
6
CONTINUOUS
62
5
10
216.199997
20
175.999999
40
1.000000
100
AcDbArc
50
-18.194872
51
18.194872
0
POLYLINE
5
428
100
AcDbEntity
8
1
6
CONTINUOUS
62
5
100
AcDb2dPolyline
66
1
10
0.0
20
0.0
30
0.0
70
0
0
VERTEX
5
429
100
AcDbEntity
8
1
100
AcDbVertex
100
AcDb2dVertex
62
5
10
217.149997
20
174.700000
0
VERTEX
5
42a
100
AcDbEntity
8
1
100
AcDbVertex
100
AcDb2dVertex
62
5
10
217.999997
20
174.700000
0
VERTEX
5
42b
100
AcDbEntity
8
1
100
AcDbVertex
100
AcDb2dVertex
62
5
10
217.999997
20
177.749993
0
SEQEND
5
42c
100
AcDbEntity
8
1
0
LINE
5
42d
100
AcDbEntity
8
1
100
AcDbLine
6
CONTINUOUS
62
5
10
217.149997
20
173.999996
11
217.149997
21
177.749993
0
ARC
5
42e
100
AcDbEntity
8
1
100
AcDbCircle
6
CONTINUOUS
62
5
10
233.199997
20
159.870565
40
1.000000
100
AcDbArc
50
0.000000
51
88.810482
0
LINE
5
42f
100
AcDbEntity
8
1
100
AcDbLine
6
CONTINUOUS
62
5
10
233.220756
20
160.870350
11
232.999997
21
160.874934
0
ARC
5
430
100
AcDbEntity
8
1
100
AcDbCircle
6
CONTINUOUS
62
5
10
233.199997
20
158.670565
40
1.000000
100
AcDbArc
50
0.000000
51
88.810482
0
LINE
5
431
100
AcDbEntity
8
1
100
AcDbLine
6
CONTINUOUS
62
5
10
233.220756
20
159.670350
11
224.850007
21
159.844160
0
LINE
5
432
100
AcDbEntity
8
1
100
AcDbLine
6
CONTINUOUS
62
5
10
218.999997
20
154.750000
11
218.999997
21
152.200002
0
LINE
5
433
100
AcDbEntity
8
1
100
AcDbLine
6
CONTINUOUS
62
5
10
217.999997
20
151.000002
11
217.999997
21
151.699993
0
LINE
5
434
100
AcDbEntity
8
1
100
AcDbLine
6
CONTINUOUS
62
5
10
218.399997
20
151.000002
11
218.399997
21
152.200002
0
POLYLINE
5
435
100
AcDbEntity
8
1
6
CONTINUOUS
62
5
100
AcDb2dPolyline
66
1
10
0.0
20
0.0
30
0.0
70
0
0
VERTEX
5
436
100
AcDbEntity
8
1
100
AcDbVertex
100
AcDb2dVertex
62
5
10
218.499997
20
151.000002
0
VERTEX
5
437
100
AcDbEntity
8
1
100
AcDbVertex
100
AcDb2dVertex
62
5
10
218.499997
20
152.200002
0
VERTEX
5
438
100
AcDbEntity
8
1
100
AcDbVertex
100
AcDb2dVertex
62
5
10
218.499997
20
152.200002
0
SEQEND
5
439
100
AcDbEntity
8
1
0
ARC
5
43a
100
AcDbEntity
8
1
100
AcDbCircle
6
CONTINUOUS
62
5
10
216.199996
20
153.000001
40
1.000000
100
AcDbArc
50
-18.194872
51
18.194872
0
LINE
5
43b
100
AcDbEntity
8
1
100
AcDbLine
6
CONTINUOUS
62
5
10
217.199997
20
151.000002
11
217.199997
21
154.750000
0
LINE
5
43c
100
AcDbEntity
8
1
100
AcDbLine
6
CONTINUOUS
62
5
10
217.149997
20
154.750000
11
217.149997
21
151.000003
0
POLYLINE
5
43d
100
AcDbEntity
8
1
6
CONTINUOUS
62
5
100
AcDb2dPolyline
66
1
10
0.0
20
0.0
30
0.0
70
0
0
VERTEX
5
43e
100
AcDbEntity
8
1
100
AcDbVertex
100
AcDb2dVertex
62
5
10
217.999997
20
154.750000
0
VERTEX
5
43f
100
AcDbEntity
8
1
100
AcDbVertex
100
AcDb2dVertex
62
5
10
217.999997
20
151.699993
0
VERTEX
5
440
100
AcDbEntity
8
1
100
AcDbVertex
100
AcDb2dVertex
62
5
10
217.149997
20
151.699993
0
SEQEND
5
441
100
AcDbEntity
8
1
0
ARC
5
442
100
AcDbEntity
8
1
100
AcDbCircle
6
CONTINUOUS
62
5
10
220.649995
20
151.500002
40
0.500000
100
AcDbArc
50
-89.999999
51
-0.000000
0
LINE
5
443
100
AcDbEntity
8
1
100
AcDbLine
6
CONTINUOUS
62
5
10
221.149995
20
151.500002
11
221.149995
21
151.700002
0
ARC
5
444
100
AcDbEntity
8
1
100
AcDbCircle
6
CONTINUOUS
62
5
10
220.649995
20
151.700002
40
0.500000
100
AcDbArc
50
0.000000
51
89.999999
0
LINE
5
445
100
AcDbEntity
8
1
100
AcDbLine
6
CONTINUOUS
62
5
10
220.649995
20
152.200002
11
218.199995
21
152.200002
0
ARC
5
446
100
AcDbEntity
8
1
100
AcDbCircle
6
CONTINUOUS
62
5
10
218.199995
20
152.400002
40
0.200000
100
AcDbArc
50
179.999998
51
-89.999999
0
ARC
5
447
100
AcDbEntity
8
1
100
AcDbCircle
6
CONTINUOUS
62
5
10
229.999997
20
139.956654
40
0.500000
100
AcDbArc
50
-84.805240
51
-0.000000
0
LINE
5
448
100
AcDbEntity
8
1
100
AcDbLine
6
CONTINUOUS
62
5
10
230.045267
20
139.458707
11
224.999997
21
139.000017
0
POLYLINE
5
449
100
AcDbEntity
8
1
6
CONTINUOUS
62
5
100
AcDb2dPolyline
66
1
10
0.0
20
0.0
30
0.0
70
0
0
VERTEX
5
44a
100
AcDbEntity
8
1
100
AcDbVertex
100
AcDb2dVertex
62
5
10
224.850007
20
142.000017
0
VERTEX
5
44b
100
AcDbEntity
8
1
100
AcDbVertex
100
AcDb2dVertex
62
5
10
224.999979
20
142.000017
0
VERTEX
5
44c
100
AcDbEntity
8
1
100
AcDbVertex
100
AcDb2dVertex
62
5
10
230.045261
20
141.541386
0
SEQEND
5
44d
100
AcDbEntity
8
1
0
ARC
5
44e
100
AcDbEntity
8
1
100
AcDbCircle
6
CONTINUOUS
62
5
10
229.999997
20
141.043439
40
0.500000
100
AcDbArc
50
-0.000000
51
84.805916
0
LINE
5
44f
100
AcDbEntity
8
1
100
AcDbLine
6
CONTINUOUS
62
5
10
230.499997
20
141.043439
11
230.499997
21
139.956654
0
POLYLINE
5
450
100
AcDbEntity
8
1
6
CONTINUOUS
62
5
100
AcDb2dPolyline
66
1
10
0.0
20
0.0
30
0.0
70
0
0
VERTEX
5
451
100
AcDbEntity
8
1
100
AcDbVertex
100
AcDb2dVertex
62
5
10
224.850007
20
136.800038
0
VERTEX
5
452
100
AcDbEntity
8
1
100
AcDbVertex
100
AcDb2dVertex
62
5
10
224.999997
20
137.100017
0
VERTEX
5
453
100
AcDbEntity
8
1
100
AcDbVertex
100
AcDb2dVertex
62
5
10
224.999997
20
142.000015
0
SEQEND
5
454
100
AcDbEntity
8
1
0
LINE
5
455
100
AcDbEntity
8
1
100
AcDbLine
6
CONTINUOUS
62
5
10
218.999997
20
144.800005
11
218.999997
21
142.250007
0
LINE
5
456
100
AcDbEntity
8
1
100
AcDbLine
6
CONTINUOUS
62
5
10
217.999997
20
145.300000
11
217.999997
21
146.000004
0
LINE
5
457
100
AcDbEntity
8
1
100
AcDbLine
6
CONTINUOUS
62
5
10
218.399997
20
146.000004
11
218.399997
21
144.800005
0
LINE
5
458
100
AcDbEntity
8
1
100
AcDbLine
6
CONTINUOUS
62
5
10
217.149997
20
143.800017
11
217.199997
21
143.800017
0
ARC
5
459
100
AcDbEntity
8
1
100
AcDbCircle
6
CONTINUOUS
62
5
10
216.199997
20
144.000001
40
1.000000
100
AcDbArc
50
-18.194872
51
18.194872
0
LINE
5
45a
100
AcDbEntity
8
1
100
AcDbLine
6
CONTINUOUS
62
5
10
217.199997
20
142.300017
11
217.999997
21
142.300017
0
LINE
5
45b
100
AcDbEntity
8
1
100
AcDbLine
6
CONTINUOUS
62
5
10
217.999997
20
145.200017
11
217.199997
21
145.200017
0
LINE
5
45c
100
AcDbEntity
8
1
100
AcDbLine
6
CONTINUOUS
62
5
10
217.199997
20
146.000004
11
217.199997
21
142.250007
0
LINE
5
45d
100
AcDbEntity
8
1
100
AcDbLine
6
CONTINUOUS
62
5
10
217.149997
20
146.000004
11
217.149997
21
142.250007
0
POLYLINE
5
45e
100
AcDbEntity
8
1
6
CONTINUOUS
62
5
100
AcDb2dPolyline
66
1
10
0.0
20
0.0
30
0.0
70
0
0
VERTEX
5
45f
100
AcDbEntity
8
1
100
AcDbVertex
100
AcDb2dVertex
62
5
10
217.149997
20
145.300000
0
VERTEX
5
460
100
AcDbEntity
8
1
100
AcDbVertex
100
AcDb2dVertex
62
5
10
217.999997
20
145.300000
0
VERTEX
5
461
100
AcDbEntity
8
1
100
AcDbVertex
100
AcDb2dVertex
62
5
10
217.999997
20
142.250007
0
SEQEND
5
462
100
AcDbEntity
8
1
0
ARC
5
463
100
AcDbEntity
8
1
100
AcDbCircle
6
CONTINUOUS
62
5
10
218.199995
20
144.600005
40
0.200000
100
AcDbArc
50
89.999999
51
-179.999998
0
LINE
5
464
100
AcDbEntity
8
1
100
AcDbLine
6
CONTINUOUS
62
5
10
218.199995
20
144.800005
11
220.649995
21
144.800005
0
ARC
5
465
100
AcDbEntity
8
1
100
AcDbCircle
6
CONTINUOUS
62
5
10
220.649995
20
145.300005
40
0.500000
100
AcDbArc
50
-89.999993
51
-0.000000
0
LINE
5
466
100
AcDbEntity
8
1
100
AcDbLine
6
CONTINUOUS
62
5
10
221.149995
20
145.300005
11
221.149995
21
145.500005
0
ARC
5
467
100
AcDbEntity
8
1
100
AcDbCircle
6
CONTINUOUS
62
5
10
220.649995
20
145.500005
40
0.500000
100
AcDbArc
50
0.000000
51
89.933642
0
ARC
5
468
100
AcDbEntity
8
1
100
AcDbCircle
6
CONTINUOUS
62
5
10
215.850005
20
150.500002
40
0.500000
100
AcDbArc
50
89.999999
51
179.999998
0
LINE
5
469
100
AcDbEntity
8
1
100
AcDbLine
6
CONTINUOUS
62
5
10
215.350005
20
150.500002
11
215.350005
21
146.500004
0
ARC
5
46a
100
AcDbEntity
8
1
100
AcDbCircle
6
CONTINUOUS
62
5
10
215.850005
20
146.500004
40
0.500000
100
AcDbArc
50
179.999998
51
-90.000002
0
ARC
5
46b
100
AcDbEntity
8
1
100
AcDbCircle
6
CONTINUOUS
62
5
10
233.199997
20
148.529468
40
1.000000
100
AcDbArc
50
-88.810482
51
0.000000
0
LINE
5
46c
100
AcDbEntity
8
1
100
AcDbLine
6
CONTINUOUS
62
5
10
224.850007
20
147.355874
11
233.220756
21
147.529684
0
ARC
5
46d
100
AcDbEntity
8
1
100
AcDbCircle
6
CONTINUOUS
62
5
10
233.199997
20
149.729468
40
1.000000
100
AcDbArc
50
-88.810482
51
0.000000
0
LINE
5
46e
100
AcDbEntity
8
1
100
AcDbLine
6
CONTINUOUS
62
5
10
224.850007
20
148.555874
11
233.220756
21
148.729684
0
LINE
5
46f
100
AcDbEntity
8
1
100
AcDbLine
6
CONTINUOUS
62
5
10
220.999996
20
151.142932
11
220.999996
21
152.057072
0
LINE
5
470
100
AcDbEntity
8
1
100
AcDbLine
6
CONTINUOUS
62
5
10
220.999996
20
167.942927
11
220.999996
21
168.857067
0
ARC
5
471
100
AcDbEntity
8
1
100
AcDbCircle
6
CONTINUOUS
62
5
10
216.149993
20
155.250000
40
0.500000
100
AcDbArc
50
179.999998
51
-89.999999
0
LINE
5
472
100
AcDbEntity
8
1
100
AcDbLine
6
CONTINUOUS
62
5
10
215.649993
20
155.250000
11
215.649993
21
164.699998
0
ARC
5
473
100
AcDbEntity
8
1
100
AcDbCircle
6
CONTINUOUS
62
5
10
216.149993
20
164.699998
40
0.500000
100
AcDbArc
50
89.999999
51
179.999998
0
LINE
5
474
100
AcDbEntity
8
1
100
AcDbLine
6
CONTINUOUS
62
5
10
216.149993
20
165.199998
11
218.840006
21
165.199998
0
ARC
5
475
100
AcDbEntity
8
1
100
AcDbCircle
6
CONTINUOUS
62
5
10
218.840006
20
164.699998
40
0.500000
100
AcDbArc
50
0.000000
51
89.999999
0
LINE
5
476
100
AcDbEntity
8
1
100
AcDbLine
6
CONTINUOUS
62
5
10
219.340006
20
164.699998
11
219.340006
21
155.250000
0
ARC
5
477
100
AcDbEntity
8
1
100
AcDbCircle
6
CONTINUOUS
62
5
10
218.840006
20
155.250000
40
0.500000
100
AcDbArc
50
-89.999999
51
0.000000
0
LINE
5
478
100
AcDbEntity
8
1
100
AcDbLine
6
CONTINUOUS
62
5
10
218.840006
20
154.750000
11
216.149993
21
154.750000
0
ARC
5
479
100
AcDbEntity
8
1
100
AcDbCircle
6
CONTINUOUS
62
5
10
213.850003
20
169.499997
40
0.500000
100
AcDbArc
50
179.999998
51
-89.999999
0
POLYLINE
5
47a
100
AcDbEntity
8
1
6
CONTINUOUS
62
5
100
AcDb2dPolyline
66
1
10
0.0
20
0.0
30
0.0
70
0
0
VERTEX
5
47b
100
AcDbEntity
8
1
100
AcDbVertex
100
AcDb2dVertex
62
5
10
213.850003
20
168.999997
0
VERTEX
5
47c
100
AcDbEntity
8
1
100
AcDbVertex
100
AcDb2dVertex
62
5
10
222.149995
20
168.999997
0
VERTEX
5
47d
100
AcDbEntity
8
1
100
AcDbVertex
100
AcDb2dVertex
62
5
10
222.149994
20
151.000002
0
VERTEX
5
47e
100
AcDbEntity
8
1
100
AcDbVertex
100
AcDb2dVertex
62
5
10
213.850003
20
151.000002
0
SEQEND
5
47f
100
AcDbEntity
8
1
0
ARC
5
480
100
AcDbEntity
8
1
100
AcDbCircle
6
CONTINUOUS
62
5
10
213.850003
20
150.500002
40
0.500000
100
AcDbArc
50
89.999999
51
-179.999998
0
ARC
5
481
100
AcDbEntity
8
1
100
AcDbCircle
6
CONTINUOUS
62
5
10
233.199997
20
162.929861
40
1.000000
100
AcDbArc
50
0.000000
51
88.264301
0
LINE
5
482
100
AcDbEntity
8
1
100
AcDbLine
6
CONTINUOUS
62
5
10
234.199997
20
162.929861
11
234.199997
21
145.470173
0
ARC
5
483
100
AcDbEntity
8
1
100
AcDbCircle
6
CONTINUOUS
62
5
10
233.199997
20
145.470173
40
1.000000
100
AcDbArc
50
-88.264295
51
0.000000
0
LINE
5
484
100
AcDbEntity
8
1
100
AcDbLine
6
CONTINUOUS
62
5
10
233.230286
20
144.470632
11
232.999997
21
144.463653
0
LINE
5
485
100
AcDbEntity
8
1
100
AcDbLine
6
CONTINUOUS
62
5
10
232.999997
20
163.936380
11
233.230286
21
163.929402
0
LINE
5
486
100
AcDbEntity
8
1
100
AcDbLine
6
CONTINUOUS
62
5
10
217.199997
20
131.600017
11
217.999997
21
131.600017
0
ARC
5
487
100
AcDbEntity
8
1
100
AcDbCircle
6
CONTINUOUS
62
5
10
226.499997
20
126.637673
40
0.500000
100
AcDbArc
50
-88.567903
51
0.000000
0
LINE
5
488
100
AcDbEntity
8
1
100
AcDbLine
6
CONTINUOUS
62
5
10
226.999997
20
126.637673
11
226.999997
21
127.186113
0
ARC
5
489
100
AcDbEntity
8
1
100
AcDbCircle
6
CONTINUOUS
62
5
10
226.499997
20
127.186113
40
0.500000
100
AcDbArc
50
0.000000
51
85.710846
0
LINE
5
48a
100
AcDbEntity
8
1
100
AcDbLine
6
CONTINUOUS
62
5
10
226.537392
20
127.684712
11
224.999997
21
127.800017
0
ARC
5
48b
100
AcDbEntity
8
1
100
AcDbCircle
6
CONTINUOUS
62
5
10
224.499997
20
126.587673
40
0.500000
100
AcDbArc
50
-45.571292
51
0.000000
0
POLYLINE
5
48c
100
AcDbEntity
8
1
6
CONTINUOUS
62
5
100
AcDb2dPolyline
66
1
10
0.0
20
0.0
30
0.0
70
0
0
VERTEX
5
48d
100
AcDbEntity
8
1
100
AcDbVertex
100
AcDb2dVertex
62
5
10
224.999997
20
126.587673
0
VERTEX
5
48e
100
AcDbEntity
8
1
100
AcDbVertex
100
AcDb2dVertex
62
5
10
224.999997
20
127.800017
0
VERTEX
5
48f
100
AcDbEntity
8
1
100
AcDbVertex
100
AcDb2dVertex
62
5
10
224.850007
20
128.114995
0
SEQEND
5
490
100
AcDbEntity
8
1
0
LINE
5
491
100
AcDbEntity
8
1
100
AcDbLine
6
CONTINUOUS
62
5
10
217.999997
20
128.000010
11
217.999997
21
128.700000
0
LINE
5
492
100
AcDbEntity
8
1
100
AcDbLine
6
CONTINUOUS
62
5
10
217.999997
20
128.800017
11
217.199997
21
128.800017
0
LINE
5
493
100
AcDbEntity
8
1
100
AcDbLine
6
CONTINUOUS
62
5
10
217.149997
20
129.500017
11
217.199997
21
129.500017
0
LINE
5
494
100
AcDbEntity
8
1
100
AcDbLine
6
CONTINUOUS
62
5
10
214.750005
20
113.850014
11
215.000005
21
114.100014
0
ARC
5
495
100
AcDbEntity
8
1
100
AcDbCircle
6
CONTINUOUS
62
5
10
220.649995
20
128.500010
40
0.500000
100
AcDbArc
50
-89.999999
51
-0.000000
0
LINE
5
496
100
AcDbEntity
8
1
100
AcDbLine
6
CONTINUOUS
62
5
10
221.149995
20
128.500010
11
221.149995
21
128.700009
0
ARC
5
497
100
AcDbEntity
8
1
100
AcDbCircle
6
CONTINUOUS
62
5
10
220.649995
20
128.700009
40
0.500000
100
AcDbArc
50
0.000000
51
89.999999
0
LINE
5
498
100
AcDbEntity
8
1
100
AcDbLine
6
CONTINUOUS
62
5
10
220.649995
20
129.200009
11
218.199995
21
129.200009
0
ARC
5
499
100
AcDbEntity
8
1
100
AcDbCircle
6
CONTINUOUS
62
5
10
218.199995
20
129.400009
40
0.200000
100
AcDbArc
50
179.999998
51
-89.999999
0
ARC
5
49a
100
AcDbEntity
8
1
100
AcDbCircle
6
CONTINUOUS
62
5
10
214.350005
20
118.500012
40
1.000000
100
AcDbArc
50
-179.999998
51
-89.999999
0
ARC
5
49b
100
AcDbEntity
8
1
100
AcDbCircle
6
CONTINUOUS
62
5
10
213.850005
20
120.500012
40
0.500000
100
AcDbArc
50
-179.999998
51
-89.999999
0
LINE
5
49c
100
AcDbEntity
8
1
100
AcDbLine
6
CONTINUOUS
62
5
10
214.650005
20
120.000012
11
213.850005
21
120.000012
0
ARC
5
49d
100
AcDbEntity
8
1
100
AcDbCircle
6
CONTINUOUS
62
5
10
213.850005
20
118.000013
40
0.500000
100
AcDbArc
50
-179.999998
51
-89.999999
0
LINE
5
49e
100
AcDbEntity
8
1
100
AcDbLine
6
CONTINUOUS
62
5
10
217.350007
20
117.500013
11
213.850005
21
117.500013
0
ARC
5
49f
100
AcDbEntity
8
1
100
AcDbCircle
6
CONTINUOUS
62
5
10
222.436781
20
124.752260
40
0.500000
100
AcDbArc
50
-84.259946
51
-64.758715
0
LINE
5
4a0
100
AcDbEntity
8
1
100
AcDbLine
6
CONTINUOUS
62
5
10
217.350007
20
123.638079
11
222.486789
21
124.254767
0
LINE
5
4a1
100
AcDbEntity
8
1
100
AcDbLine
6
CONTINUOUS
62
5
10
218.999997
20
131.750007
11
218.999997
21
129.200009
0
LINE
5
4a2
100
AcDbEntity
8
1
100
AcDbLine
6
CONTINUOUS
62
5
10
217.199997
20
128.000010
11
217.199997
21
131.750007
0
ARC
5
4a3
100
AcDbEntity
8
1
100
AcDbCircle
6
CONTINUOUS
62
5
10
216.199997
20
130.000001
40
1.000000
100
AcDbArc
50
-18.194872
51
18.194872
0
POLYLINE
5
4a4
100
AcDbEntity
8
1
6
CONTINUOUS
62
5
100
AcDb2dPolyline
66
1
10
0.0
20
0.0
30
0.0
70
0
0
VERTEX
5
4a5
100
AcDbEntity
8
1
100
AcDbVertex
100
AcDb2dVertex
62
5
10
217.999997
20
131.750007
0
VERTEX
5
4a6
100
AcDbEntity
8
1
100
AcDbVertex
100
AcDb2dVertex
62
5
10
217.999997
20
128.700000
0
VERTEX
5
4a7
100
AcDbEntity
8
1
100
AcDbVertex
100
AcDb2dVertex
62
5
10
217.149997
20
128.700000
0
SEQEND
5
4a8
100
AcDbEntity
8
1
0
LINE
5
4a9
100
AcDbEntity
8
1
100
AcDbLine
6
CONTINUOUS
62
5
10
217.149997
20
131.750007
11
217.149997
21
128.000010
0
ARC
5
4aa
100
AcDbEntity
8
1
100
AcDbCircle
6
CONTINUOUS
62
5
10
216.350004
20
106.250016
40
0.500000
100
AcDbArc
50
89.999999
51
-179.999998
0
LINE
5
4ab
100
AcDbEntity
8
1
100
AcDbLine
6
CONTINUOUS
62
5
10
215.850004
20
106.250016
11
215.850004
21
104.500017
0
ARC
5
4ac
100
AcDbEntity
8
1
100
AcDbCircle
6
CONTINUOUS
62
5
10
216.350004
20
104.500017
40
0.500000
100
AcDbArc
50
-179.999998
51
-161.565013
0
LINE
5
4ad
100
AcDbEntity
8
1
100
AcDbLine
6
CONTINUOUS
62
5
10
216.650007
20
106.750016
11
216.350004
21
106.750016
0
ARC
5
4ae
100
AcDbEntity
8
1
100
AcDbCircle
6
CONTINUOUS
62
5
10
216.650007
20
104.500017
40
0.500000
100
AcDbArc
50
179.999998
51
-89.999999
0
LINE
5
4af
100
AcDbEntity
8
1
100
AcDbLine
6
CONTINUOUS
62
5
10
216.150007
20
104.500017
11
216.150007
21
106.250016
0
ARC
5
4b0
100
AcDbEntity
8
1
100
AcDbCircle
6
CONTINUOUS
62
5
10
216.650007
20
106.250016
40
0.500000
100
AcDbArc
50
89.999999
51
-179.999998
0
LINE
5
4b1
100
AcDbEntity
8
1
100
AcDbLine
6
CONTINUOUS
62
5
10
216.650007
20
106.750016
11
217.350007
21
106.750016
0
ARC
5
4b2
100
AcDbEntity
8
1
100
AcDbCircle
6
CONTINUOUS
62
5
10
216.350004
20
110.500015
40
0.500000
100
AcDbArc
50
89.999999
51
179.999998
0
LINE
5
4b3
100
AcDbEntity
8
1
100
AcDbLine
6
CONTINUOUS
62
5
10
215.850004
20
110.500015
11
215.850004
21
105.354761
0
LINE
5
4b4
100
AcDbEntity
8
1
100
AcDbLine
6
CONTINUOUS
62
5
10
217.350007
20
111.000015
11
216.350004
21
111.000015
0
ARC
5
4b5
100
AcDbEntity
8
1
100
AcDbCircle
6
CONTINUOUS
62
5
10
215.250005
20
111.500015
40
0.500000
100
AcDbArc
50
-179.999998
51
-89.999999
0
POLYLINE
5
4b6
100
AcDbEntity
8
1
6
CONTINUOUS
62
5
100
AcDb2dPolyline
66
1
10
0.0
20
0.0
30
0.0
70
0
0
VERTEX
5
4b7
100
AcDbEntity
8
1
100
AcDbVertex
100
AcDb2dVertex
62
5
10
215.850004
20
110.500015
0
VERTEX
5
4b8
100
AcDbEntity
8
1
100
AcDbVertex
100
AcDb2dVertex
62
5
10
215.850004
20
111.000015
0
VERTEX
5
4b9
100
AcDbEntity
8
1
100
AcDbVertex
100
AcDb2dVertex
62
5
10
215.250005
20
111.000015
0
SEQEND
5
4ba
100
AcDbEntity
8
1
0
ARC
5
4bb
100
AcDbEntity
8
1
100
AcDbCircle
6
CONTINUOUS
62
5
10
226.632483
20
134.494529
40
1.600000
100
AcDbArc
50
-83.565383
51
-64.499999
0
LINE
5
4bc
100
AcDbEntity
8
1
100
AcDbLine
6
CONTINUOUS
62
5
10
227.321301
20
133.050392
11
227.981373
21
133.365231
0
ARC
5
4bd
100
AcDbEntity
8
1
100
AcDbCircle
6
CONTINUOUS
62
5
10
227.766118
20
133.816523
40
0.500000
100
AcDbArc
50
-64.499999
51
25.500000
0
LINE
5
4be
100
AcDbEntity
8
1
100
AcDbLine
6
CONTINUOUS
62
5
10
228.217410
20
134.031779
11
227.052757
21
136.473525
0
ARC
5
4bf
100
AcDbEntity
8
1
100
AcDbCircle
6
CONTINUOUS
62
5
10
225.969655
20
135.956912
40
1.200000
100
AcDbArc
50
25.500000
51
92.530341
0
LINE
5
4c0
100
AcDbEntity
8
1
100
AcDbLine
6
CONTINUOUS
62
5
10
225.916677
20
137.155742
11
224.999997
21
137.115232
0
LINE
5
4c1
100
AcDbEntity
8
1
100
AcDbLine
6
CONTINUOUS
62
5
10
224.850007
20
132.683358
11
226.811794
21
132.904608
0
ARC
5
4c2
100
AcDbEntity
8
1
100
AcDbCircle
6
CONTINUOUS
62
5
10
216.149993
20
132.250007
40
0.500000
100
AcDbArc
50
179.999998
51
-89.999999
0
LINE
5
4c3
100
AcDbEntity
8
1
100
AcDbLine
6
CONTINUOUS
62
5
10
215.649993
20
132.250007
11
215.649993
21
141.750007
0
ARC
5
4c4
100
AcDbEntity
8
1
100
AcDbCircle
6
CONTINUOUS
62
5
10
216.149993
20
141.750007
40
0.500000
100
AcDbArc
50
89.999999
51
179.999998
0
LINE
5
4c5
100
AcDbEntity
8
1
100
AcDbLine
6
CONTINUOUS
62
5
10
216.149993
20
142.250007
11
218.840006
21
142.250007
0
ARC
5
4c6
100
AcDbEntity
8
1
100
AcDbCircle
6
CONTINUOUS
62
5
10
218.840006
20
141.750007
40
0.500000
100
AcDbArc
50
0.000000
51
89.999999
0
LINE
5
4c7
100
AcDbEntity
8
1
100
AcDbLine
6
CONTINUOUS
62
5
10
219.340006
20
141.750007
11
219.340006
21
132.250007
0
ARC
5
4c8
100
AcDbEntity
8
1
100
AcDbCircle
6
CONTINUOUS
62
5
10
218.840006
20
132.250007
40
0.500000
100
AcDbArc
50
-89.999999
51
0.000000
0
LINE
5
4c9
100
AcDbEntity
8
1
100
AcDbLine
6
CONTINUOUS
62
5
10
218.840006
20
131.750007
11
216.149993
21
131.750007
0
ARC
5
4ca
100
AcDbEntity
8
1
100
AcDbCircle
6
CONTINUOUS
62
5
10
233.199997
20
129.770150
40
1.000000
100
AcDbArc
50
-85.236357
51
0.000000
0
LINE
5
4cb
100
AcDbEntity
8
1
100
AcDbLine
6
CONTINUOUS
62
5
10
233.283042
20
128.773604
11
232.999997
21
128.750017
0
LINE
5
4cc
100
AcDbEntity
8
1
100
AcDbLine
6
CONTINUOUS
62
5
10
232.999997
20
136.450017
11
233.283042
21
136.426430
0
ARC
5
4cd
100
AcDbEntity
8
1
100
AcDbCircle
6
CONTINUOUS
62
5
10
233.199997
20
135.429884
40
1.000000
100
AcDbArc
50
0.000000
51
85.236357
0
LINE
5
4ce
100
AcDbEntity
8
1
100
AcDbLine
6
CONTINUOUS
62
5
10
234.199997
20
135.429884
11
234.199997
21
129.770150
0
ARC
5
4cf
100
AcDbEntity
8
1
100
AcDbCircle
6
CONTINUOUS
62
5
10
231.999997
20
127.275329
40
1.000000
100
AcDbArc
50
-88.567903
51
0.000000
0
LINE
5
4d0
100
AcDbEntity
8
1
100
AcDbLine
6
CONTINUOUS
62
5
10
232.024989
20
126.275642
11
224.850007
21
126.096267
0
POLYLINE
5
4d1
100
AcDbEntity
8
1
6
CONTINUOUS
62
5
100
AcDb2dPolyline
66
1
10
0.0
20
0.0
30
0.0
70
0
0
VERTEX
5
4d2
100
AcDbEntity
8
1
100
AcDbVertex
100
AcDb2dVertex
62
5
10
224.850007
20
145.087301
0
VERTEX
5
4d3
100
AcDbEntity
8
1
100
AcDbVertex
100
AcDb2dVertex
62
5
10
232.999997
20
144.914126
0
VERTEX
5
4d4
100
AcDbEntity
8
1
100
AcDbVertex
100
AcDb2dVertex
62
5
10
232.999997
20
127.275329
0
SEQEND
5
4d5
100
AcDbEntity
8
1
0
LINE
5
4d6
100
AcDbEntity
8
1
100
AcDbLine
6
CONTINUOUS
62
5
10
220.999997
20
128.142939
11
220.999997
21
129.057079
0
LINE
5
4d7
100
AcDbEntity
8
1
100
AcDbLine
6
CONTINUOUS
62
5
10
220.999997
20
144.942935
11
220.999997
21
145.857075
0
ARC
5
4d8
100
AcDbEntity
8
1
100
AcDbCircle
6
CONTINUOUS
62
5
10
232.999997
20
174.300017
40
0.700000
100
AcDbArc
50
0.000000
51
89.999999
0
LINE
5
4d9
100
AcDbEntity
8
1
100
AcDbLine
6
CONTINUOUS
62
5
10
232.999997
20
175.000017
11
232.999997
21
175.000017
0
LINE
5
4da
100
AcDbEntity
8
1
100
AcDbLine
6
CONTINUOUS
62
5
10
232.024989
20
126.275642
11
232.519990
21
126.288017
0
ARC
5
4db
100
AcDbEntity
8
1
100
AcDbCircle
6
CONTINUOUS
62
5
10
232.499997
20
127.087767
40
0.800000
100
AcDbArc
50
-88.567903
51
0.000000
0
LINE
5
4dc
100
AcDbEntity
8
1
100
AcDbLine
6
CONTINUOUS
62
5
10
233.299997
20
127.087767
11
233.299997
21
128.775162
0
POLYLINE
5
4dd
100
AcDbEntity
8
1
6
CONTINUOUS
62
5
100
AcDb2dPolyline
66
1
10
0.0
20
0.0
30
0.0
70
0
0
VERTEX
5
4de
100
AcDbEntity
8
1
100
AcDbVertex
100
AcDb2dVertex
62
5
10
233.299997
20
136.424871
0
VERTEX
5
4df
100
AcDbEntity
8
1
100
AcDbVertex
100
AcDb2dVertex
62
5
10
233.299997
20
136.600016
0
VERTEX
5
4e0
100
AcDbEntity
8
1
100
AcDbVertex
100
AcDb2dVertex
62
5
10
233.699997
20
136.600016
0
SEQEND
5
4e1
100
AcDbEntity
8
1
0
ARC
5
4e2
100
AcDbEntity
8
1
100
AcDbCircle
6
CONTINUOUS
62
5
10
233.699997
20
137.100016
40
0.500000
100
AcDbArc
50
-89.999999
51
0.000000
0
LINE
5
4e3
100
AcDbEntity
8
1
100
AcDbLine
6
CONTINUOUS
62
5
10
234.199997
20
137.100016
11
234.199997
21
145.470173
0
LINE
5
4e4
100
AcDbEntity
8
1
100
AcDbLine
6
CONTINUOUS
62
5
10
233.699997
20
163.795886
11
233.699997
21
174.300017
0
ARC
5
4e5
100
AcDbEntity
8
1
100
AcDbCircle
6
CONTINUOUS
62
5
10
213.850004
20
146.500004
40
0.500000
100
AcDbArc
50
179.999998
51
-89.999999
0
POLYLINE
5
4e6
100
AcDbEntity
8
1
6
CONTINUOUS
62
5
100
AcDb2dPolyline
66
1
10
0.0
20
0.0
30
0.0
70
0
0
VERTEX
5
4e7
100
AcDbEntity
8
1
100
AcDbVertex
100
AcDb2dVertex
62
5
10
213.850004
20
146.000004
0
VERTEX
5
4e8
100
AcDbEntity
8
1
100
AcDbVertex
100
AcDb2dVertex
62
5
10
222.149995
20
146.000004
0
VERTEX
5
4e9
100
AcDbEntity
8
1
100
AcDbVertex
100
AcDb2dVertex
62
5
10
222.149994
20
128.000010
0
VERTEX
5
4ea
100
AcDbEntity
8
1
100
AcDbVertex
100
AcDb2dVertex
62
5
10
213.850004
20
128.000010
0
SEQEND
5
4eb
100
AcDbEntity
8
1
0
ARC
5
4ec
100
AcDbEntity
8
1
100
AcDbCircle
6
CONTINUOUS
62
5
10
213.850004
20
127.500010
40
0.500000
100
AcDbArc
50
89.999999
51
-179.999998
0
LINE
5
4ed
100
AcDbEntity
8
1
100
AcDbLine
6
CONTINUOUS
62
5
10
149.999982
20
174.000013
11
149.999982
21
174.800000
0
LINE
5
4ee
100
AcDbEntity
8
1
100
AcDbLine
6
CONTINUOUS
62
5
10
149.999982
20
169.000014
11
149.999982
21
167.800014
0
ARC
5
4ef
100
AcDbEntity
8
1
100
AcDbCircle
6
CONTINUOUS
62
5
10
149.599997
20
173.500013
40
0.400000
100
AcDbArc
50
-0.000000
51
89.999999
0
LINE
5
4f0
100
AcDbEntity
8
1
100
AcDbLine
6
CONTINUOUS
62
5
10
149.999997
20
173.500013
11
149.999997
21
169.500014
0
ARC
5
4f1
100
AcDbEntity
8
1
100
AcDbCircle
6
CONTINUOUS
62
5
10
149.599997
20
169.500014
40
0.400000
100
AcDbArc
50
-89.999999
51
0.000000
0
ARC
5
4f2
100
AcDbEntity
8
1
100
AcDbCircle
6
CONTINUOUS
62
5
10
150.099997
20
169.500014
40
0.400000
100
AcDbArc
50
-89.999999
51
-0.000000
0
LINE
5
4f3
100
AcDbEntity
8
1
100
AcDbLine
6
CONTINUOUS
62
5
10
150.499997
20
169.500014
11
150.499997
21
173.500013
0
ARC
5
4f4
100
AcDbEntity
8
1
100
AcDbCircle
6
CONTINUOUS
62
5
10
150.099997
20
173.500013
40
0.400000
100
AcDbArc
50
0.000000
51
89.999999
0
ARC
5
4f5
100
AcDbEntity
8
1
100
AcDbCircle
6
CONTINUOUS
62
5
10
150.299983
20
175.700019
40
0.500000
100
AcDbArc
50
-53.128099
51
-0.000000
0
LINE
5
4f6
100
AcDbEntity
8
1
100
AcDbLine
6
CONTINUOUS
62
5
10
150.799983
20
175.700019
11
150.799983
21
177.850017
0
LINE
5
4f7
100
AcDbEntity
8
1
100
AcDbLine
6
CONTINUOUS
62
5
10
144.299997
20
179.550000
11
144.499984
21
179.550000
0
LINE
5
4f8
100
AcDbEntity
8
1
100
AcDbLine
6
CONTINUOUS
62
5
10
144.499984
20
175.000012
11
144.599984
21
174.900012
0
LINE
5
4f9
100
AcDbEntity
8
1
100
AcDbLine
6
CONTINUOUS
62
5
10
144.499984
20
168.000014
11
144.599984
21
168.100014
0
ARC
5
4fa
100
AcDbEntity
8
1
100
AcDbCircle
6
CONTINUOUS
62
5
10
143.699997
20
175.000000
40
1.000000
100
AcDbArc
50
-89.999999
51
-72.543140
0
LINE
5
4fb
100
AcDbEntity
8
1
100
AcDbLine
6
CONTINUOUS
62
5
10
143.699997
20
174.000000
11
143.499997
21
174.000000
0
ARC
5
4fc
100
AcDbEntity
8
1
100
AcDbCircle
6
CONTINUOUS
62
5
10
143.499997
20
173.000000
40
1.000000
100
AcDbArc
50
89.999999
51
179.999998
0
ARC
5
4fd
100
AcDbEntity
8
1
100
AcDbCircle
6
CONTINUOUS
62
5
10
144.499997
20
173.702607
40
2.000000
100
AcDbArc
50
119.999999
51
-179.999998
0
ARC
5
4fe
100
AcDbEntity
8
1
100
AcDbCircle
6
CONTINUOUS
62
5
10
142.799997
20
177.200000
40
0.700000
100
AcDbArc
50
-89.999999
51
-0.000000
0
LINE
5
4ff
100
AcDbEntity
8
1
100
AcDbLine
6
CONTINUOUS
62
5
10
143.499997
20
177.200000
11
143.499997
21
178.800000
0
ARC
5
500
100
AcDbEntity
8
1
100
AcDbCircle
6
CONTINUOUS
62
5
10
142.799997
20
178.800000
40
0.700000
100
AcDbArc
50
-0.000000
51
89.999999
0
LINE
5
501
100
AcDbEntity
8
1
100
AcDbLine
6
CONTINUOUS
62
5
10
142.799997
20
179.500000
11
142.499997
21
179.500000
0
LINE
5
502
100
AcDbEntity
8
1
100
AcDbLine
6
CONTINUOUS
62
5
10
142.499997
20
176.500000
11
142.799997
21
176.500000
0
LINE
5
503
100
AcDbEntity
8
1
100
AcDbLine
6
CONTINUOUS
62
5
10
135.449997
20
176.500000
11
135.449997
21
176.800000
0
LINE
5
504
100
AcDbEntity
8
1
100
AcDbLine
6
CONTINUOUS
62
5
10
135.449997
20
176.500000
11
135.449997
21
176.800000
0
LINE
5
505
100
AcDbEntity
8
1
100
AcDbLine
6
CONTINUOUS
62
5
10
133.749997
20
176.800000
11
135.949997
21
176.800000
0
LINE
5
506
100
AcDbEntity
8
1
100
AcDbLine
6
CONTINUOUS
62
5
10
133.749997
20
176.800000
11
135.949997
21
176.800000
0
LINE
5
507
100
AcDbEntity
8
1
100
AcDbLine
6
CONTINUOUS
62
5
10
148.499983
20
174.000013
11
148.399991
21
173.900013
0
LINE
5
508
100
AcDbEntity
8
1
100
AcDbLine
6
CONTINUOUS
62
5
10
148.399983
20
169.100014
11
148.499983
21
169.000014
0
ARC
5
509
100
AcDbEntity
8
1
100
AcDbCircle
6
CONTINUOUS
62
5
10
149.299997
20
173.800000
40
1.000000
100
AcDbArc
50
89.999999
51
143.131413
0
LINE
5
50a
100
AcDbEntity
8
1
100
AcDbLine
6
CONTINUOUS
62
5
10
149.299997
20
174.800000
11
150.099997
21
174.800000
0
ARC
5
50b
100
AcDbEntity
8
1
100
AcDbCircle
6
CONTINUOUS
62
5
10
150.099997
20
175.300000
40
0.500000
100
AcDbArc
50
-89.999999
51
-0.000000
0
LINE
5
50c
100
AcDbEntity
8
1
100
AcDbLine
6
CONTINUOUS
62
5
10
150.599997
20
175.300000
11
150.598764
21
177.235080
0
ARC
5
50d
100
AcDbEntity
8
1
100
AcDbCircle
6
CONTINUOUS
62
5
10
150.099997
20
177.200000
40
0.500000
100
AcDbArc
50
4.023224
51
89.999999
0
LINE
5
50e
100
AcDbEntity
8
1
100
AcDbLine
6
CONTINUOUS
62
5
10
150.099997
20
177.700000
11
149.299997
21
177.700000
0
ARC
5
50f
100
AcDbEntity
8
1
100
AcDbCircle
6
CONTINUOUS
62
5
10
149.299997
20
178.700000
40
1.000000
100
AcDbArc
50
-143.131413
51
-89.999999
0
LINE
5
510
100
AcDbEntity
8
1
100
AcDbLine
6
CONTINUOUS
62
5
10
149.999982
20
151.000020
11
149.999982
21
152.200019
0
ARC
5
511
100
AcDbEntity
8
1
100
AcDbCircle
6
CONTINUOUS
62
5
10
150.300051
20
144.300045
40
0.499931
100
AcDbArc
50
-0.001898
51
53.132037
0
LINE
5
512
100
AcDbEntity
8
1
100
AcDbLine
6
CONTINUOUS
62
5
10
150.799983
20
144.300028
11
150.799983
21
142.150030
0
LINE
5
513
100
AcDbEntity
8
1
100
AcDbLine
6
CONTINUOUS
62
5
10
149.999982
20
146.000021
11
149.999982
21
145.200000
0
ARC
5
514
100
AcDbEntity
8
1
100
AcDbCircle
6
CONTINUOUS
62
5
10
149.599997
20
150.500020
40
0.400000
100
AcDbArc
50
-0.000000
51
89.999999
0
LINE
5
515
100
AcDbEntity
8
1
100
AcDbLine
6
CONTINUOUS
62
5
10
149.999997
20
150.500020
11
149.999997
21
146.500021
0
ARC
5
516
100
AcDbEntity
8
1
100
AcDbCircle
6
CONTINUOUS
62
5
10
149.599997
20
146.500021
40
0.400000
100
AcDbArc
50
-89.999999
51
0.000000
0
ARC
5
517
100
AcDbEntity
8
1
100
AcDbCircle
6
CONTINUOUS
62
5
10
150.099997
20
146.500021
40
0.400000
100
AcDbArc
50
-89.999999
51
-0.000000
0
LINE
5
518
100
AcDbEntity
8
1
100
AcDbLine
6
CONTINUOUS
62
5
10
150.499997
20
146.500021
11
150.499997
21
150.500020
0
ARC
5
519
100
AcDbEntity
8
1
100
AcDbCircle
6
CONTINUOUS
62
5
10
150.099997
20
150.500020
40
0.400000
100
AcDbArc
50
0.000000
51
89.999999
0
LINE
5
51a
100
AcDbEntity
8
1
100
AcDbLine
6
CONTINUOUS
62
5
10
144.499984
20
152.000019
11
144.599984
21
151.900019
0
ARC
5
51b
100
AcDbEntity
8
1
100
AcDbCircle
6
CONTINUOUS
62
5
10
142.799997
20
148.200000
40
0.700000
100
AcDbArc
50
-89.999999
51
0.000000
0
LINE
5
51c
100
AcDbEntity
8
1
100
AcDbLine
6
CONTINUOUS
62
5
10
143.499997
20
148.200000
11
143.499997
21
149.800000
0
ARC
5
51d
100
AcDbEntity
8
1
100
AcDbCircle
6
CONTINUOUS
62
5
10
142.799997
20
149.800000
40
0.700000
100
AcDbArc
50
0.000000
51
89.999999
0
LINE
5
51e
100
AcDbEntity
8
1
100
AcDbLine
6
CONTINUOUS
62
5
10
142.799997
20
150.500000
11
142.499997
21
150.500000
0
LINE
5
51f
100
AcDbEntity
8
1
100
AcDbLine
6
CONTINUOUS
62
5
10
142.499997
20
147.500000
11
142.799997
21
147.500000
0
LINE
5
520
100
AcDbEntity
8
1
100
AcDbLine
6
CONTINUOUS
62
5
10
144.299997
20
140.750000
11
144.499984
21
140.750000
0
ARC
5
521
100
AcDbEntity
8
1
100
AcDbCircle
6
CONTINUOUS
62
5
10
145.499997
20
144.500000
40
1.500000
100
AcDbArc
50
-179.999998
51
-152.181871
0
LINE
5
522
100
AcDbEntity
8
1
100
AcDbLine
6
CONTINUOUS
62
5
10
143.999997
20
144.500000
11
143.999997
21
144.953939
0
LINE
5
523
100
AcDbEntity
8
1
100
AcDbLine
6
CONTINUOUS
62
5
10
144.499984
20
145.000021
11
144.599984
21
145.100021
0
POLYLINE
5
524
100
AcDbEntity
8
1
6
CONTINUOUS
62
5
100
AcDb2dPolyline
66
1
10
0.0
20
0.0
30
0.0
70
0
0
VERTEX
5
525
100
AcDbEntity
8
1
100
AcDbVertex
100
AcDb2dVertex
62
5
10
144.499984
20
143.800000
0
VERTEX
5
526
100
AcDbEntity
8
1
100
AcDbVertex
100
AcDb2dVertex
62
5
10
143.499997
20
143.800000
0
VERTEX
5
527
100
AcDbEntity
8
1
100
AcDbVertex
100
AcDb2dVertex
62
5
10
143.499997
20
136.400000
0
VERTEX
5
528
100
AcDbEntity
8
1
100
AcDbVertex
100
AcDb2dVertex
62
5
10
144.299997
20
136.400000
0
VERTEX
5
529
100
AcDbEntity
8
1
100
AcDbVertex
100
AcDb2dVertex
62
5
10
144.299997
20
143.800000
0
SEQEND
5
52a
100
AcDbEntity
8
1
0
ARC
5
52b
100
AcDbEntity
8
1
100
AcDbCircle
6
CONTINUOUS
62
5
10
142.799997
20
141.200000
40
0.700000
100
AcDbArc
50
-89.999999
51
-0.000000
0
LINE
5
52c
100
AcDbEntity
8
1
100
AcDbLine
6
CONTINUOUS
62
5
10
143.499997
20
141.200000
11
143.499997
21
142.800000
0
ARC
5
52d
100
AcDbEntity
8
1
100
AcDbCircle
6
CONTINUOUS
62
5
10
142.799997
20
142.800000
40
0.700000
100
AcDbArc
50
0.000000
51
89.999999
0
LINE
5
52e
100
AcDbEntity
8
1
100
AcDbLine
6
CONTINUOUS
62
5
10
142.799997
20
143.500000
11
142.499997
21
143.500000
0
LINE
5
52f
100
AcDbEntity
8
1
100
AcDbLine
6
CONTINUOUS
62
5
10
142.499997
20
140.500000
11
142.799997
21
140.500000
0
ARC
5
530
100
AcDbEntity
8
1
100
AcDbCircle
6
CONTINUOUS
62
5
10
143.499997
20
146.000000
40
1.000000
100
AcDbArc
50
-179.999998
51
-89.999999
0
LINE
5
531
100
AcDbEntity
8
1
100
AcDbLine
6
CONTINUOUS
62
5
10
143.499997
20
145.000000
11
143.699997
21
145.000000
0
ARC
5
532
100
AcDbEntity
8
1
100
AcDbCircle
6
CONTINUOUS
62
5
10
143.699997
20
144.000000
40
1.000000
100
AcDbArc
50
36.871095
51
89.999999
0
POLYLINE
5
533
100
AcDbEntity
8
1
6
CONTINUOUS
62
5
100
AcDb2dPolyline
66
1
10
0.0
20
0.0
30
0.0
70
0
0
VERTEX
5
534
100
AcDbEntity
8
1
100
AcDbVertex
100
AcDb2dVertex
62
5
10
144.499984
20
135.600000
0
VERTEX
5
535
100
AcDbEntity
8
1
100
AcDbVertex
100
AcDb2dVertex
62
5
10
143.499997
20
135.600000
0
VERTEX
5
536
100
AcDbEntity
8
1
100
AcDbVertex
100
AcDb2dVertex
62
5
10
143.499997
20
135.500000
0
VERTEX
5
537
100
AcDbEntity
8
1
100
AcDbVertex
100
AcDb2dVertex
62
5
10
142.499997
20
135.500000
0
SEQEND
5
538
100
AcDbEntity
8
1
0
ARC
5
539
100
AcDbEntity
8
1
100
AcDbCircle
6
CONTINUOUS
62
5
10
130.892760
20
138.664368
40
0.350000
100
AcDbArc
50
125.537677
51
-54.462322
0
POLYLINE
5
53a
100
AcDbEntity
8
1
6
CONTINUOUS
62
5
100
AcDb2dPolyline
66
1
10
0.0
20
0.0
30
0.0
70
0
0
VERTEX
5
53b
100
AcDbEntity
8
1
100
AcDbVertex
100
AcDb2dVertex
62
5
10
131.096194
20
138.379561
0
VERTEX
5
53c
100
AcDbEntity
8
1
100
AcDbVertex
100
AcDb2dVertex
62
5
10
132.097150
20
139.094530
0
VERTEX
5
53d
100
AcDbEntity
8
1
100
AcDbVertex
100
AcDb2dVertex
62
5
10
132.697913
20
139.684129
0
VERTEX
5
53e
100
AcDbEntity
8
1
100
AcDbVertex
100
AcDb2dVertex
62
5
10
133.888525
20
138.344691
0
SEQEND
5
53f
100
AcDbEntity
8
1
0
ARC
5
540
100
AcDbEntity
8
1
100
AcDbCircle
6
CONTINUOUS
62
5
10
134.150118
20
138.577218
40
0.350000
100
AcDbArc
50
-138.366459
51
41.633539
0
POLYLINE
5
541
100
AcDbEntity
8
1
6
CONTINUOUS
62
5
100
AcDb2dPolyline
66
1
10
0.0
20
0.0
30
0.0
70
0
0
VERTEX
5
542
100
AcDbEntity
8
1
100
AcDbVertex
100
AcDb2dVertex
62
5
10
134.411711
20
138.809746
0
VERTEX
5
543
100
AcDbEntity
8
1
100
AcDbVertex
100
AcDb2dVertex
62
5
10
133.148709
20
140.230624
0
VERTEX
5
544
100
AcDbEntity
8
1
100
AcDbVertex
100
AcDb2dVertex
62
5
10
133.429700
20
140.652110
0
VERTEX
5
545
100
AcDbEntity
8
1
100
AcDbVertex
100
AcDb2dVertex
62
5
10
133.895145
20
141.583001
0
VERTEX
5
546
100
AcDbEntity
8
1
100
AcDbVertex
100
AcDb2dVertex
62
5
10
133.895145
20
141.875000
0
SEQEND
5
547
100
AcDbEntity
8
1
0
ARC
5
548
100
AcDbEntity
8
1
100
AcDbCircle
6
CONTINUOUS
62
5
10
133.545145
20
141.875000
40
0.350000
100
AcDbArc
50
0.000000
51
89.999999
0
LINE
5
549
100
AcDbEntity
8
1
100
AcDbLine
6
CONTINUOUS
62
5
10
133.545145
20
142.225000
11
131.173270
21
142.225000
0
ARC
5
54a
100
AcDbEntity
8
1
100
AcDbCircle
6
CONTINUOUS
62
5
10
131.173270
20
141.875000
40
0.350000
100
AcDbArc
50
89.999999
51
-89.999999
0
POLYLINE
5
54b
100
AcDbEntity
8
1
6
CONTINUOUS
62
5
100
AcDb2dPolyline
66
1
10
0.0
20
0.0
30
0.0
70
0
0
VERTEX
5
54c
100
AcDbEntity
8
1
100
AcDbVertex
100
AcDb2dVertex
62
5
10
131.173270
20
141.525000
0
VERTEX
5
54d
100
AcDbEntity
8
1
100
AcDbVertex
100
AcDb2dVertex
62
5
10
133.195145
20
141.525000
0
VERTEX
5
54e
100
AcDbEntity
8
1
100
AcDbVertex
100
AcDb2dVertex
62
5
10
132.823091
20
141.004140
0
VERTEX
5
54f
100
AcDbEntity
8
1
100
AcDbVertex
100
AcDb2dVertex
62
5
10
132.435652
20
140.422981
0
VERTEX
5
550
100
AcDbEntity
8
1
100
AcDbVertex
100
AcDb2dVertex
62
5
10
131.643141
20
139.630470
0
VERTEX
5
551
100
AcDbEntity
8
1
100
AcDbVertex
100
AcDb2dVertex
62
5
10
130.689327
20
138.949175
0
SEQEND
5
552
100
AcDbEntity
8
1
0
LINE
5
553
100
AcDbEntity
8
1
100
AcDbLine
6
CONTINUOUS
62
5
10
139.699997
20
140.500000
11
139.849997
21
140.500000
0
LINE
5
554
100
AcDbEntity
8
1
100
AcDbLine
6
CONTINUOUS
62
5
10
139.849997
20
143.675000
11
139.699997
21
143.675000
0
LINE
5
555
100
AcDbEntity
8
1
100
AcDbLine
6
CONTINUOUS
62
5
10
139.699997
20
141.375000
11
139.849997
21
141.375000
0
POLYLINE
5
556
100
AcDbEntity
8
1
6
CONTINUOUS
62
5
100
AcDb2dPolyline
66
1
10
0.0
20
0.0
30
0.0
70
0
0
VERTEX
5
557
100
AcDbEntity
8
1
100
AcDbVertex
100
AcDb2dVertex
62
5
10
142.499997
20
151.000000
0
VERTEX
5
558
100
AcDbEntity
8
1
100
AcDbVertex
100
AcDb2dVertex
62
5
10
143.699997
20
151.000000
0
VERTEX
5
559
100
AcDbEntity
8
1
100
AcDbVertex
100
AcDb2dVertex
62
5
10
143.699997
20
147.000000
0
VERTEX
5
55a
100
AcDbEntity
8
1
100
AcDbVertex
100
AcDb2dVertex
62
5
10
142.499997
20
147.000000
0
SEQEND
5
55b
100
AcDbEntity
8
1
0
LINE
5
55c
100
AcDbEntity
8
1
100
AcDbLine
6
CONTINUOUS
62
5
10
148.499983
20
151.000020
11
148.399983
21
150.900020
0
LINE
5
55d
100
AcDbEntity
8
1
100
AcDbLine
6
CONTINUOUS
62
5
10
148.499983
20
146.000021
11
148.399983
21
146.100021
0
ARC
5
55e
100
AcDbEntity
8
1
100
AcDbCircle
6
CONTINUOUS
62
5
10
149.299997
20
141.300000
40
1.000000
100
AcDbArc
50
89.999999
51
143.131413
0
LINE
5
55f
100
AcDbEntity
8
1
100
AcDbLine
6
CONTINUOUS
62
5
10
149.299997
20
142.300000
11
150.099997
21
142.300000
0
ARC
5
560
100
AcDbEntity
8
1
100
AcDbCircle
6
CONTINUOUS
62
5
10
150.099997
20
142.800000
40
0.500000
100
AcDbArc
50
-89.999999
51
-0.000000
0
LINE
5
561
100
AcDbEntity
8
1
100
AcDbLine
6
CONTINUOUS
62
5
10
150.599997
20
142.800000
11
150.599997
21
144.700000
0
ARC
5
562
100
AcDbEntity
8
1
100
AcDbCircle
6
CONTINUOUS
62
5
10
150.099997
20
144.700000
40
0.500000
100
AcDbArc
50
-0.000000
51
89.999999
0
LINE
5
563
100
AcDbEntity
8
1
100
AcDbLine
6
CONTINUOUS
62
5
10
150.099997
20
145.200000
11
149.299997
21
145.200000
0
ARC
5
564
100
AcDbEntity
8
1
100
AcDbCircle
6
CONTINUOUS
62
5
10
149.299997
20
146.200000
40
1.000000
100
AcDbArc
50
-143.131413
51
-89.999999
0
ARC
5
565
100
AcDbEntity
8
1
100
AcDbCircle
6
CONTINUOUS
62
5
10
149.999982
20
164.750024
40
0.500000
100
AcDbArc
50
89.999999
51
179.999998
0
LINE
5
566
100
AcDbEntity
8
1
100
AcDbLine
6
CONTINUOUS
62
5
10
149.999982
20
165.250024
11
150.499982
21
165.250024
0
ARC
5
567
100
AcDbEntity
8
1
100
AcDbCircle
6
CONTINUOUS
62
5
10
150.499982
20
164.750024
40
0.500000
100
AcDbArc
50
-0.000000
51
89.999999
0
LINE
5
568
100
AcDbEntity
8
1
100
AcDbLine
6
CONTINUOUS
62
5
10
150.999982
20
164.750024
11
150.999982
21
155.250024
0
ARC
5
569
100
AcDbEntity
8
1
100
AcDbCircle
6
CONTINUOUS
62
5
10
150.499982
20
155.250024
40
0.500000
100
AcDbArc
50
-89.999999
51
-0.000000
0
LINE
5
56a
100
AcDbEntity
8
1
100
AcDbLine
6
CONTINUOUS
62
5
10
150.499982
20
154.750024
11
149.999982
21
154.750024
0
ARC
5
56b
100
AcDbEntity
8
1
100
AcDbCircle
6
CONTINUOUS
62
5
10
149.999982
20
155.250024
40
0.500000
100
AcDbArc
50
179.999998
51
-89.999999
0
ARC
5
56c
100
AcDbEntity
8
1
100
AcDbCircle
6
CONTINUOUS
62
5
10
150.251305
20
155.250387
40
0.500364
100
AcDbArc
50
-179.875091
51
-0.041624
0
LINE
5
56d
100
AcDbEntity
8
1
100
AcDbLine
6
CONTINUOUS
62
5
10
150.751669
20
155.250024
11
150.751669
21
164.750024
0
ARC
5
56e
100
AcDbEntity
8
1
100
AcDbCircle
6
CONTINUOUS
62
5
10
150.251305
20
164.749660
40
0.500364
100
AcDbArc
50
0.041625
51
179.875091
0
LINE
5
56f
100
AcDbEntity
8
1
100
AcDbLine
6
CONTINUOUS
62
5
10
149.750943
20
164.750751
11
149.750943
21
155.249296
0
ARC
5
570
100
AcDbEntity
8
1
100
AcDbCircle
6
CONTINUOUS
62
5
10
151.199982
20
152.700019
40
0.500000
100
AcDbArc
50
-89.999999
51
-0.000000
0
POLYLINE
5
571
100
AcDbEntity
8
1
6
CONTINUOUS
62
5
100
AcDb2dPolyline
66
1
10
0.0
20
0.0
30
0.0
70
0
0
VERTEX
5
572
100
AcDbEntity
8
1
100
AcDbVertex
100
AcDb2dVertex
62
5
10
151.199982
20
152.200019
0
VERTEX
5
573
100
AcDbEntity
8
1
100
AcDbVertex
100
AcDb2dVertex
62
5
10
149.499983
20
152.200019
0
VERTEX
5
574
100
AcDbEntity
8
1
100
AcDbVertex
100
AcDb2dVertex
62
5
10
149.499983
20
167.800014
0
VERTEX
5
575
100
AcDbEntity
8
1
100
AcDbVertex
100
AcDb2dVertex
62
5
10
151.199982
20
167.800014
0
SEQEND
5
576
100
AcDbEntity
8
1
0
ARC
5
577
100
AcDbEntity
8
1
100
AcDbCircle
6
CONTINUOUS
62
5
10
151.199982
20
167.300015
40
0.500000
100
AcDbArc
50
-0.000000
51
89.999999
0
ARC
5
578
100
AcDbEntity
8
1
100
AcDbCircle
6
CONTINUOUS
62
5
10
150.299983
20
152.700026
40
0.500000
100
AcDbArc
50
-79.449901
51
-0.000000
0
ARC
5
579
100
AcDbEntity
8
1
100
AcDbCircle
6
CONTINUOUS
62
5
10
150.299983
20
167.300022
40
0.500000
100
AcDbArc
50
0.000000
51
79.449901
0
LINE
5
57a
100
AcDbEntity
8
1
100
AcDbLine
6
CONTINUOUS
62
5
10
150.799983
20
167.300022
11
150.799983
21
165.150023
0
LINE
5
57b
100
AcDbEntity
8
1
100
AcDbLine
6
CONTINUOUS
62
5
10
150.799983
20
154.850024
11
150.799983
21
152.700026
0
ARC
5
57c
100
AcDbEntity
8
1
100
AcDbCircle
6
CONTINUOUS
62
5
10
151.199990
20
169.500014
40
0.500000
100
AcDbArc
50
-89.999999
51
0.000000
0
POLYLINE
5
57d
100
AcDbEntity
8
1
6
CONTINUOUS
62
5
100
AcDb2dPolyline
66
1
10
0.0
20
0.0
30
0.0
70
0
0
VERTEX
5
57e
100
AcDbEntity
8
1
100
AcDbVertex
100
AcDb2dVertex
62
5
10
151.199990
20
169.000014
0
VERTEX
5
57f
100
AcDbEntity
8
1
100
AcDbVertex
100
AcDb2dVertex
62
5
10
148.499991
20
169.000014
0
VERTEX
5
580
100
AcDbEntity
8
1
100
AcDbVertex
100
AcDb2dVertex
62
5
10
148.499991
20
151.000020
0
VERTEX
5
581
100
AcDbEntity
8
1
100
AcDbVertex
100
AcDb2dVertex
62
5
10
151.199990
20
151.000020
0
SEQEND
5
582
100
AcDbEntity
8
1
0
ARC
5
583
100
AcDbEntity
8
1
100
AcDbCircle
6
CONTINUOUS
62
5
10
151.199990
20
150.500020
40
0.500000
100
AcDbArc
50
-0.000000
51
89.999999
0
LINE
5
584
100
AcDbEntity
8
1
100
AcDbLine
6
CONTINUOUS
62
5
10
112.699997
20
179.250000
11
112.499997
21
179.250000
0
LINE
5
585
100
AcDbEntity
8
1
100
AcDbLine
6
CONTINUOUS
62
5
10
108.599989
20
178.100024
11
108.499989
21
178.000025
0
ARC
5
586
100
AcDbEntity
8
1
100
AcDbCircle
6
CONTINUOUS
62
5
10
114.199997
20
178.800000
40
0.700000
100
AcDbArc
50
89.999999
51
-179.999998
0
LINE
5
587
100
AcDbEntity
8
1
100
AcDbLine
6
CONTINUOUS
62
5
10
114.199997
20
179.500000
11
114.499997
21
179.500000
0
LINE
5
588
100
AcDbEntity
8
1
100
AcDbLine
6
CONTINUOUS
62
5
10
112.499994
20
175.000012
11
112.399994
21
174.900012
0
LINE
5
589
100
AcDbEntity
8
1
100
AcDbLine
6
CONTINUOUS
62
5
10
112.399994
20
168.100014
11
112.499994
21
168.000014
0
LINE
5
58a
100
AcDbEntity
8
1
100
AcDbLine
6
CONTINUOUS
62
5
10
108.499989
20
174.700017
11
108.599989
21
174.600017
0
LINE
5
58b
100
AcDbEntity
8
1
100
AcDbLine
6
CONTINUOUS
62
5
10
108.599989
20
168.400023
11
108.499989
21
168.300024
0
LINE
5
58c
100
AcDbEntity
8
1
100
AcDbLine
6
CONTINUOUS
62
5
10
108.499989
20
165.000016
11
108.599989
21
164.900016
0
ARC
5
58d
100
AcDbEntity
8
1
100
AcDbCircle
6
CONTINUOUS
62
5
10
106.899997
20
174.200010
40
0.400000
100
AcDbArc
50
89.999999
51
179.999998
0
LINE
5
58e
100
AcDbEntity
8
1
100
AcDbLine
6
CONTINUOUS
62
5
10
106.499997
20
174.200010
11
106.499997
21
168.800010
0
ARC
5
58f
100
AcDbEntity
8
1
100
AcDbCircle
6
CONTINUOUS
62
5
10
106.899997
20
168.800010
40
0.400000
100
AcDbArc
50
179.999998
51
-90.336538
0
ARC
5
590
100
AcDbEntity
8
1
100
AcDbCircle
6
CONTINUOUS
62
5
10
107.399997
20
168.800010
40
0.400000
100
AcDbArc
50
-179.999998
51
-89.999999
0
LINE
5
591
100
AcDbEntity
8
1
100
AcDbLine
6
CONTINUOUS
62
5
10
106.999997
20
168.800010
11
106.999997
21
174.200010
0
ARC
5
592
100
AcDbEntity
8
1
100
AcDbCircle
6
CONTINUOUS
62
5
10
107.399997
20
174.200010
40
0.400000
100
AcDbArc
50
89.999999
51
179.999998
0
LINE
5
593
100
AcDbEntity
8
1
100
AcDbLine
6
CONTINUOUS
62
5
10
107.499989
20
168.300023
11
107.499989
21
165.000016
0
ARC
5
594
100
AcDbEntity
8
1
100
AcDbCircle
6
CONTINUOUS
62
5
10
113.299997
20
176.000000
40
1.000000
100
AcDbArc
50
-143.130382
51
-89.999999
0
ARC
5
595
100
AcDbEntity
8
1
100
AcDbCircle
6
CONTINUOUS
62
5
10
112.499997
20
173.702607
40
2.000000
100
AcDbArc
50
28.125156
51
65.942650
0
LINE
5
596
100
AcDbEntity
8
1
100
AcDbLine
6
CONTINUOUS
62
5
10
112.499994
20
175.892858
11
113.315298
21
175.528883
0
ARC
5
597
100
AcDbEntity
8
1
100
AcDbCircle
6
CONTINUOUS
62
5
10
113.499997
20
174.000000
40
1.000000
100
AcDbArc
50
0.000000
51
53.129144
0
LINE
5
598
100
AcDbEntity
8
1
100
AcDbLine
6
CONTINUOUS
62
5
10
114.199993
20
173.000000
11
114.499997
21
173.000000
0
LINE
5
599
100
AcDbEntity
8
1
100
AcDbLine
6
CONTINUOUS
62
5
10
114.199993
20
169.000000
11
114.499997
21
169.000000
0
LINE
5
59a
100
AcDbEntity
8
1
100
AcDbLine
6
CONTINUOUS
62
5
10
121.549997
20
175.750000
11
121.549997
21
176.800000
0
LINE
5
59b
100
AcDbEntity
8
1
100
AcDbLine
6
CONTINUOUS
62
5
10
121.549997
20
175.750000
11
121.549997
21
176.800000
0
LINE
5
59c
100
AcDbEntity
8
1
100
AcDbLine
6
CONTINUOUS
62
5
10
121.049997
20
176.800000
11
123.249997
21
176.800000
0
LINE
5
59d
100
AcDbEntity
8
1
100
AcDbLine
6
CONTINUOUS
62
5
10
121.049997
20
176.800000
11
123.249997
21
176.800000
0
LINE
5
59e
100
AcDbEntity
8
1
100
AcDbLine
6
CONTINUOUS
62
5
10
107.499989
20
178.000024
11
107.499989
21
177.700000
0
LINE
5
59f
100
AcDbEntity
8
1
100
AcDbLine
6
CONTINUOUS
62
5
10
107.499989
20
174.800000
11
107.499989
21
174.700017
0
ARC
5
5a0
100
AcDbEntity
8
1
100
AcDbCircle
6
CONTINUOUS
62
5
10
114.199997
20
177.200000
40
0.700000
100
AcDbArc
50
179.999998
51
-89.999999
0
LINE
5
5a1
100
AcDbEntity
8
1
100
AcDbLine
6
CONTINUOUS
62
5
10
114.499997
20
176.500000
11
114.199997
21
176.500000
0
ARC
5
5a2
100
AcDbEntity
8
1
100
AcDbCircle
6
CONTINUOUS
62
5
10
106.299996
20
164.500016
40
0.500000
100
AcDbArc
50
89.999999
51
-179.999998
0
POLYLINE
5
5a3
100
AcDbEntity
8
1
6
CONTINUOUS
62
5
100
AcDb2dPolyline
66
1
10
0.0
20
0.0
30
0.0
70
0
0
VERTEX
5
5a4
100
AcDbEntity
8
1
100
AcDbVertex
100
AcDb2dVertex
62
5
10
106.299996
20
165.000016
0
VERTEX
5
5a5
100
AcDbEntity
8
1
100
AcDbVertex
100
AcDb2dVertex
62
5
10
108.499989
20
165.000016
0
VERTEX
5
5a6
100
AcDbEntity
8
1
100
AcDbVertex
100
AcDb2dVertex
62
5
10
108.499989
20
168.300024
0
VERTEX
5
5a7
100
AcDbEntity
8
1
100
AcDbVertex
100
AcDb2dVertex
62
5
10
106.299996
20
168.300023
0
SEQEND
5
5a8
100
AcDbEntity
8
1
0
ARC
5
5a9
100
AcDbEntity
8
1
100
AcDbCircle
6
CONTINUOUS
62
5
10
106.299996
20
168.800022
40
0.500000
100
AcDbArc
50
-179.681193
51
-89.999999
0
ARC
5
5aa
100
AcDbEntity
8
1
100
AcDbCircle
6
CONTINUOUS
62
5
10
107.699997
20
178.700000
40
1.000000
100
AcDbArc
50
-89.999999
51
-44.424986
0
LINE
5
5ab
100
AcDbEntity
8
1
100
AcDbLine
6
CONTINUOUS
62
5
10
107.699997
20
177.700000
11
106.899997
21
177.700000
0
ARC
5
5ac
100
AcDbEntity
8
1
100
AcDbCircle
6
CONTINUOUS
62
5
10
106.899997
20
177.200000
40
0.500000
100
AcDbArc
50
89.999999
51
179.999998
0
LINE
5
5ad
100
AcDbEntity
8
1
100
AcDbLine
6
CONTINUOUS
62
5
10
106.399997
20
177.200000
11
106.399997
21
175.300000
0
ARC
5
5ae
100
AcDbEntity
8
1
100
AcDbCircle
6
CONTINUOUS
62
5
10
106.899997
20
175.300000
40
0.500000
100
AcDbArc
50
179.999998
51
-89.999999
0
LINE
5
5af
100
AcDbEntity
8
1
100
AcDbLine
6
CONTINUOUS
62
5
10
106.899997
20
174.800000
11
107.699997
21
174.800000
0
ARC
5
5b0
100
AcDbEntity
8
1
100
AcDbCircle
6
CONTINUOUS
62
5
10
107.699997
20
173.800000
40
1.000000
100
AcDbArc
50
64.160275
51
89.999999
0
ARC
5
5b1
100
AcDbEntity
8
1
100
AcDbCircle
6
CONTINUOUS
62
5
10
106.299996
20
174.200017
40
0.500000
100
AcDbArc
50
89.999999
51
-179.999998
0
POLYLINE
5
5b2
100
AcDbEntity
8
1
6
CONTINUOUS
62
5
100
AcDb2dPolyline
66
1
10
0.0
20
0.0
30
0.0
70
0
0
VERTEX
5
5b3
100
AcDbEntity
8
1
100
AcDbVertex
100
AcDb2dVertex
62
5
10
106.299996
20
174.700017
0
VERTEX
5
5b4
100
AcDbEntity
8
1
100
AcDbVertex
100
AcDb2dVertex
62
5
10
108.499989
20
174.700017
0
VERTEX
5
5b5
100
AcDbEntity
8
1
100
AcDbVertex
100
AcDb2dVertex
62
5
10
108.499989
20
178.000025
0
VERTEX
5
5b6
100
AcDbEntity
8
1
100
AcDbVertex
100
AcDb2dVertex
62
5
10
106.299996
20
178.000024
0
SEQEND
5
5b7
100
AcDbEntity
8
1
0
ARC
5
5b8
100
AcDbEntity
8
1
100
AcDbCircle
6
CONTINUOUS
62
5
10
106.299996
20
178.500024
40
0.500000
100
AcDbArc
50
-179.681193
51
-89.999999
0
LINE
5
5b9
100
AcDbEntity
8
1
100
AcDbLine
6
CONTINUOUS
62
5
10
112.499994
20
152.000019
11
112.399994
21
151.900019
0
LINE
5
5ba
100
AcDbEntity
8
1
100
AcDbLine
6
CONTINUOUS
62
5
10
108.599989
20
155.100024
11
108.499989
21
155.000025
0
LINE
5
5bb
100
AcDbEntity
8
1
100
AcDbLine
6
CONTINUOUS
62
5
10
108.499989
20
151.700017
11
108.599989
21
151.600017
0
LINE
5
5bc
100
AcDbEntity
8
1
100
AcDbLine
6
CONTINUOUS
62
5
10
107.499989
20
151.700017
11
107.499989
21
155.000025
0
LINE
5
5bd
100
AcDbEntity
8
1
100
AcDbLine
6
CONTINUOUS
62
5
10
117.149997
20
140.500000
11
117.299997
21
140.500000
0
LINE
5
5be
100
AcDbEntity
8
1
100
AcDbLine
6
CONTINUOUS
62
5
10
117.149997
20
141.375000
11
117.299997
21
141.375000
0
LINE
5
5bf
100
AcDbEntity
8
1
100
AcDbLine
6
CONTINUOUS
62
5
10
117.299997
20
143.675000
11
117.149997
21
143.675000
0
LINE
5
5c0
100
AcDbEntity
8
1
100
AcDbLine
6
CONTINUOUS
62
5
10
112.499997
20
140.450000
11
112.699997
21
140.450000
0
LINE
5
5c1
100
AcDbEntity
8
1
100
AcDbLine
6
CONTINUOUS
62
5
10
112.999997
20
145.000021
11
112.999997
21
144.800000
0
LINE
5
5c2
100
AcDbEntity
8
1
100
AcDbLine
6
CONTINUOUS
62
5
10
112.399994
20
145.100021
11
112.499994
21
145.000021
0
LINE
5
5c3
100
AcDbEntity
8
1
100
AcDbLine
6
CONTINUOUS
62
5
10
108.499989
20
142.000024
11
108.599989
21
141.900024
0
LINE
5
5c4
100
AcDbEntity
8
1
100
AcDbLine
6
CONTINUOUS
62
5
10
108.599989
20
145.400031
11
108.499989
21
145.300032
0
LINE
5
5c5
100
AcDbEntity
8
1
100
AcDbLine
6
CONTINUOUS
62
5
10
107.499989
20
145.300031
11
107.499989
21
145.200000
0
LINE
5
5c6
100
AcDbEntity
8
1
100
AcDbLine
6
CONTINUOUS
62
5
10
107.499989
20
142.300000
11
107.499989
21
142.000024
0
POLYLINE
5
5c7
100
AcDbEntity
8
1
6
CONTINUOUS
62
5
100
AcDb2dPolyline
66
1
10
0.0
20
0.0
30
0.0
70
0
0
VERTEX
5
5c8
100
AcDbEntity
8
1
100
AcDbVertex
100
AcDb2dVertex
62
5
10
112.499994
20
144.800000
0
VERTEX
5
5c9
100
AcDbEntity
8
1
100
AcDbVertex
100
AcDb2dVertex
62
5
10
113.499997
20
144.800000
0
VERTEX
5
5ca
100
AcDbEntity
8
1
100
AcDbVertex
100
AcDb2dVertex
62
5
10
113.499997
20
136.400000
0
VERTEX
5
5cb
100
AcDbEntity
8
1
100
AcDbVertex
100
AcDb2dVertex
62
5
10
112.699997
20
136.400000
0
VERTEX
5
5cc
100
AcDbEntity
8
1
100
AcDbVertex
100
AcDb2dVertex
62
5
10
112.699997
20
144.800000
0
SEQEND
5
5cd
100
AcDbEntity
8
1
0
ARC
5
5ce
100
AcDbEntity
8
1
100
AcDbCircle
6
CONTINUOUS
62
5
10
114.199997
20
141.200000
40
0.700000
100
AcDbArc
50
179.999998
51
-89.999999
0
LINE
5
5cf
100
AcDbEntity
8
1
100
AcDbLine
6
CONTINUOUS
62
5
10
114.199997
20
140.500000
11
114.499997
21
140.500000
0
ARC
5
5d0
100
AcDbEntity
8
1
100
AcDbCircle
6
CONTINUOUS
62
5
10
114.199997
20
142.800000
40
0.700000
100
AcDbArc
50
89.999999
51
-179.999998
0
LINE
5
5d1
100
AcDbEntity
8
1
100
AcDbLine
6
CONTINUOUS
62
5
10
114.499997
20
143.500000
11
114.199997
21
143.500000
0
POLYLINE
5
5d2
100
AcDbEntity
8
1
6
CONTINUOUS
62
5
100
AcDb2dPolyline
66
1
10
0.0
20
0.0
30
0.0
70
0
0
VERTEX
5
5d3
100
AcDbEntity
8
1
100
AcDbVertex
100
AcDb2dVertex
62
5
10
114.499997
20
135.500000
0
VERTEX
5
5d4
100
AcDbEntity
8
1
100
AcDbVertex
100
AcDb2dVertex
62
5
10
113.499997
20
135.500000
0
VERTEX
5
5d5
100
AcDbEntity
8
1
100
AcDbVertex
100
AcDb2dVertex
62
5
10
113.499997
20
135.600000
0
VERTEX
5
5d6
100
AcDbEntity
8
1
100
AcDbVertex
100
AcDb2dVertex
62
5
10
112.499994
20
135.600000
0
SEQEND
5
5d7
100
AcDbEntity
8
1
0
ARC
5
5d8
100
AcDbEntity
8
1
100
AcDbCircle
6
CONTINUOUS
62
5
10
106.900004
20
151.200017
40
0.400000
100
AcDbArc
50
89.999999
51
179.999998
0
LINE
5
5d9
100
AcDbEntity
8
1
100
AcDbLine
6
CONTINUOUS
62
5
10
106.500004
20
151.200017
11
106.500004
21
145.800017
0
ARC
5
5da
100
AcDbEntity
8
1
100
AcDbCircle
6
CONTINUOUS
62
5
10
106.900004
20
145.800017
40
0.400000
100
AcDbArc
50
179.999998
51
-90.336538
0
ARC
5
5db
100
AcDbEntity
8
1
100
AcDbCircle
6
CONTINUOUS
62
5
10
107.400004
20
145.800017
40
0.400000
100
AcDbArc
50
-179.999998
51
-89.999999
0
LINE
5
5dc
100
AcDbEntity
8
1
100
AcDbLine
6
CONTINUOUS
62
5
10
107.000004
20
145.800017
11
107.000004
21
151.200017
0
ARC
5
5dd
100
AcDbEntity
8
1
100
AcDbCircle
6
CONTINUOUS
62
5
10
107.400004
20
151.200017
40
0.400000
100
AcDbArc
50
89.999999
51
179.999998
0
ARC
5
5de
100
AcDbEntity
8
1
100
AcDbCircle
6
CONTINUOUS
62
5
10
113.499997
20
147.000000
40
1.000000
100
AcDbArc
50
-45.573272
51
0.000000
0
ARC
5
5df
100
AcDbEntity
8
1
100
AcDbCircle
6
CONTINUOUS
62
5
10
106.299996
20
151.200017
40
0.500000
100
AcDbArc
50
89.999999
51
-179.999998
0
POLYLINE
5
5e0
100
AcDbEntity
8
1
6
CONTINUOUS
62
5
100
AcDb2dPolyline
66
1
10
0.0
20
0.0
30
0.0
70
0
0
VERTEX
5
5e1
100
AcDbEntity
8
1
100
AcDbVertex
100
AcDb2dVertex
62
5
10
106.299996
20
151.700017
0
VERTEX
5
5e2
100
AcDbEntity
8
1
100
AcDbVertex
100
AcDb2dVertex
62
5
10
108.499989
20
151.700017
0
VERTEX
5
5e3
100
AcDbEntity
8
1
100
AcDbVertex
100
AcDb2dVertex
62
5
10
108.499989
20
155.000025
0
VERTEX
5
5e4
100
AcDbEntity
8
1
100
AcDbVertex
100
AcDb2dVertex
62
5
10
106.299996
20
155.000024
0
SEQEND
5
5e5
100
AcDbEntity
8
1
0
ARC
5
5e6
100
AcDbEntity
8
1
100
AcDbCircle
6
CONTINUOUS
62
5
10
106.299996
20
155.500024
40
0.500000
100
AcDbArc
50
-179.681193
51
-89.999999
0
ARC
5
5e7
100
AcDbEntity
8
1
100
AcDbCircle
6
CONTINUOUS
62
5
10
107.699997
20
146.200000
40
1.000000
100
AcDbArc
50
-89.999999
51
-64.153880
0
LINE
5
5e8
100
AcDbEntity
8
1
100
AcDbLine
6
CONTINUOUS
62
5
10
107.699997
20
145.200000
11
106.899997
21
145.200000
0
ARC
5
5e9
100
AcDbEntity
8
1
100
AcDbCircle
6
CONTINUOUS
62
5
10
106.899997
20
144.700000
40
0.500000
100
AcDbArc
50
89.999999
51
-179.999998
0
LINE
5
5ea
100
AcDbEntity
8
1
100
AcDbLine
6
CONTINUOUS
62
5
10
106.399997
20
144.700000
11
106.399997
21
142.800000
0
ARC
5
5eb
100
AcDbEntity
8
1
100
AcDbCircle
6
CONTINUOUS
62
5
10
106.899997
20
142.800000
40
0.500000
100
AcDbArc
50
179.999998
51
-89.999999
0
LINE
5
5ec
100
AcDbEntity
8
1
100
AcDbLine
6
CONTINUOUS
62
5
10
106.899997
20
142.300000
11
107.699997
21
142.300000
0
ARC
5
5ed
100
AcDbEntity
8
1
100
AcDbCircle
6
CONTINUOUS
62
5
10
107.699997
20
141.300000
40
1.000000
100
AcDbArc
50
44.428905
51
89.999999
0
ARC
5
5ee
100
AcDbEntity
8
1
100
AcDbCircle
6
CONTINUOUS
62
5
10
106.299996
20
141.500024
40
0.500000
100
AcDbArc
50
89.999999
51
-179.999998
0
POLYLINE
5
5ef
100
AcDbEntity
8
1
6
CONTINUOUS
62
5
100
AcDb2dPolyline
66
1
10
0.0
20
0.0
30
0.0
70
0
0
VERTEX
5
5f0
100
AcDbEntity
8
1
100
AcDbVertex
100
AcDb2dVertex
62
5
10
106.299996
20
142.000024
0
VERTEX
5
5f1
100
AcDbEntity
8
1
100
AcDbVertex
100
AcDb2dVertex
62
5
10
108.499989
20
142.000024
0
VERTEX
5
5f2
100
AcDbEntity
8
1
100
AcDbVertex
100
AcDb2dVertex
62
5
10
108.499989
20
145.300032
0
VERTEX
5
5f3
100
AcDbEntity
8
1
100
AcDbVertex
100
AcDb2dVertex
62
5
10
106.299996
20
145.300031
0
SEQEND
5
5f4
100
AcDbEntity
8
1
0
ARC
5
5f5
100
AcDbEntity
8
1
100
AcDbCircle
6
CONTINUOUS
62
5
10
106.299996
20
145.800030
40
0.500000
100
AcDbArc
50
-179.681193
51
-89.999999
0
ARC
5
5f6
100
AcDbEntity
8
1
100
AcDbCircle
6
CONTINUOUS
62
5
10
130.563638
20
140.408965
40
0.350000
100
AcDbArc
50
-89.999999
51
89.999999
0
LINE
5
5f7
100
AcDbEntity
8
1
100
AcDbLine
6
CONTINUOUS
62
5
10
130.563638
20
140.758965
11
127.349997
21
140.758965
0
ARC
5
5f8
100
AcDbEntity
8
1
100
AcDbCircle
6
CONTINUOUS
62
5
10
127.349997
20
140.408965
40
0.350000
100
AcDbArc
50
89.999999
51
-89.999999
0
LINE
5
5f9
100
AcDbEntity
8
1
100
AcDbLine
6
CONTINUOUS
62
5
10
127.349997
20
140.058965
11
130.563638
21
140.058965
0
ARC
5
5fa
100
AcDbEntity
8
1
100
AcDbCircle
6
CONTINUOUS
62
5
10
125.429625
20
140.409375
40
0.350000
100
AcDbArc
50
-89.999999
51
-49.002404
0
POLYLINE
5
5fb
100
AcDbEntity
8
1
6
CONTINUOUS
62
5
100
AcDb2dPolyline
66
1
10
0.0
20
0.0
30
0.0
70
0
0
VERTEX
5
5fc
100
AcDbEntity
8
1
100
AcDbVertex
100
AcDb2dVertex
62
5
10
125.429625
20
140.059375
0
VERTEX
5
5fd
100
AcDbEntity
8
1
100
AcDbVertex
100
AcDb2dVertex
62
5
10
125.152878
20
140.059375
0
VERTEX
5
5fe
100
AcDbEntity
8
1
100
AcDbVertex
100
AcDb2dVertex
62
5
10
125.152878
20
139.908001
0
VERTEX
5
5ff
100
AcDbEntity
8
1
100
AcDbVertex
100
AcDb2dVertex
62
5
10
124.462402
20
138.527049
0
VERTEX
5
600
100
AcDbEntity
8
1
100
AcDbVertex
100
AcDb2dVertex
62
5
10
124.259380
20
138.324028
0
SEQEND
5
601
100
AcDbEntity
8
1
0
ARC
5
602
100
AcDbEntity
8
1
100
AcDbCircle
6
CONTINUOUS
62
5
10
124.011893
20
138.571515
40
0.350000
100
AcDbArc
50
134.999999
51
-45.000000
0
POLYLINE
5
603
100
AcDbEntity
8
1
6
CONTINUOUS
62
5
100
AcDb2dPolyline
66
1
10
0.0
20
0.0
30
0.0
70
0
0
VERTEX
5
604
100
AcDbEntity
8
1
100
AcDbVertex
100
AcDb2dVertex
62
5
10
123.764406
20
138.819002
0
VERTEX
5
605
100
AcDbEntity
8
1
100
AcDbVertex
100
AcDb2dVertex
62
5
10
123.887104
20
138.941701
0
VERTEX
5
606
100
AcDbEntity
8
1
100
AcDbVertex
100
AcDb2dVertex
62
5
10
124.452878
20
140.031959
0
VERTEX
5
607
100
AcDbEntity
8
1
100
AcDbVertex
100
AcDb2dVertex
62
5
10
124.452878
20
140.687500
0
SEQEND
5
608
100
AcDbEntity
8
1
0
ARC
5
609
100
AcDbEntity
8
1
100
AcDbCircle
6
CONTINUOUS
62
5
10
124.802878
20
140.687500
40
0.350000
100
AcDbArc
50
0.000000
51
179.999998
0
POLYLINE
5
60a
100
AcDbEntity
8
1
6
CONTINUOUS
62
5
100
AcDb2dPolyline
66
1
10
0.0
20
0.0
30
0.0
70
0
0
VERTEX
5
60b
100
AcDbEntity
8
1
100
AcDbVertex
100
AcDb2dVertex
62
5
10
125.152878
20
140.687500
0
VERTEX
5
60c
100
AcDbEntity
8
1
100
AcDbVertex
100
AcDb2dVertex
62
5
10
125.152878
20
140.759375
0
VERTEX
5
60d
100
AcDbEntity
8
1
100
AcDbVertex
100
AcDb2dVertex
62
5
10
125.301530
20
140.759375
0
VERTEX
5
60e
100
AcDbEntity
8
1
100
AcDbVertex
100
AcDb2dVertex
62
5
10
126.194759
20
141.525000
0
VERTEX
5
60f
100
AcDbEntity
8
1
100
AcDbVertex
100
AcDb2dVertex
62
5
10
122.849997
20
141.525000
0
SEQEND
5
610
100
AcDbEntity
8
1
0
ARC
5
611
100
AcDbEntity
8
1
100
AcDbCircle
6
CONTINUOUS
62
5
10
122.849997
20
141.875000
40
0.350000
100
AcDbArc
50
89.999999
51
-89.999999
0
LINE
5
612
100
AcDbEntity
8
1
100
AcDbLine
6
CONTINUOUS
62
5
10
122.849997
20
142.225000
11
126.896628
21
142.225000
0
ARC
5
613
100
AcDbEntity
8
1
100
AcDbCircle
6
CONTINUOUS
62
5
10
126.896628
20
141.875000
40
0.350000
100
AcDbArc
50
0.000000
51
89.999999
0
LINE
5
614
100
AcDbEntity
8
1
100
AcDbLine
6
CONTINUOUS
62
5
10
127.246628
20
141.875000
11
127.246628
21
141.684513
0
ARC
5
615
100
AcDbEntity
8
1
100
AcDbCircle
6
CONTINUOUS
62
5
10
126.896628
20
141.684513
40
0.350000
100
AcDbArc
50
-49.002404
51
0.000000
0
LINE
5
616
100
AcDbEntity
8
1
100
AcDbLine
6
CONTINUOUS
62
5
10
127.126238
20
141.420355
11
125.659235
21
140.145217
0
LINE
5
617
100
AcDbEntity
8
1
100
AcDbLine
6
CONTINUOUS
62
5
10
149.999982
20
128.000026
11
149.999982
21
128.800000
0
ARC
5
618
100
AcDbEntity
8
1
100
AcDbCircle
6
CONTINUOUS
62
5
10
151.199982
20
120.500029
40
0.500000
100
AcDbArc
50
-89.999999
51
-0.000000
0
LINE
5
619
100
AcDbEntity
8
1
100
AcDbLine
6
CONTINUOUS
62
5
10
150.399982
20
120.000029
11
151.199982
21
120.000029
0
ARC
5
61a
100
AcDbEntity
8
1
100
AcDbCircle
6
CONTINUOUS
62
5
10
150.299996
20
129.700033
40
0.500000
100
AcDbArc
50
-73.292550
51
0.000000
0
LINE
5
61b
100
AcDbEntity
8
1
100
AcDbLine
6
CONTINUOUS
62
5
10
150.799996
20
129.700033
11
150.799983
21
131.850031
0
POLYLINE
5
61c
100
AcDbEntity
8
1
6
CONTINUOUS
62
5
100
AcDb2dPolyline
66
1
10
0.0
20
0.0
30
0.0
70
0
0
VERTEX
5
61d
100
AcDbEntity
8
1
100
AcDbVertex
100
AcDb2dVertex
62
5
10
127.936361
20
133.664753
0
VERTEX
5
61e
100
AcDbEntity
8
1
100
AcDbVertex
100
AcDb2dVertex
62
5
10
127.936361
20
133.533503
0
VERTEX
5
61f
100
AcDbEntity
8
1
100
AcDbVertex
100
AcDb2dVertex
62
5
10
127.870736
20
133.271003
0
VERTEX
5
620
100
AcDbEntity
8
1
100
AcDbVertex
100
AcDb2dVertex
62
5
10
127.870736
20
132.746003
0
VERTEX
5
621
100
AcDbEntity
8
1
100
AcDbVertex
100
AcDb2dVertex
62
5
10
128.001986
20
132.352253
0
SEQEND
5
622
100
AcDbEntity
8
1
0
LINE
5
623
100
AcDbEntity
8
1
100
AcDbLine
6
CONTINUOUS
62
5
10
128.395736
20
133.205378
11
129.183236
21
133.271003
0
POLYLINE
5
624
100
AcDbEntity
8
1
6
CONTINUOUS
62
5
100
AcDb2dPolyline
66
1
10
0.0
20
0.0
30
0.0
70
0
0
VERTEX
5
625
100
AcDbEntity
8
1
100
AcDbVertex
100
AcDb2dVertex
62
5
10
128.855111
20
133.730378
0
VERTEX
5
626
100
AcDbEntity
8
1
100
AcDbVertex
100
AcDb2dVertex
62
5
10
128.855111
20
132.811628
0
VERTEX
5
627
100
AcDbEntity
8
1
100
AcDbVertex
100
AcDb2dVertex
62
5
10
128.789486
20
132.483503
0
VERTEX
5
628
100
AcDbEntity
8
1
100
AcDbVertex
100
AcDb2dVertex
62
5
10
128.592611
20
132.221003
0
SEQEND
5
629
100
AcDbEntity
8
1
0
POLYLINE
5
62a
100
AcDbEntity
8
1
6
CONTINUOUS
62
5
100
AcDb2dPolyline
66
1
10
0.0
20
0.0
30
0.0
70
0
0
VERTEX
5
62b
100
AcDbEntity
8
1
100
AcDbVertex
100
AcDb2dVertex
62
5
10
130.699997
20
133.599128
0
VERTEX
5
62c
100
AcDbEntity
8
1
100
AcDbVertex
100
AcDb2dVertex
62
5
10
131.356247
20
133.664753
0
VERTEX
5
62d
100
AcDbEntity
8
1
100
AcDbVertex
100
AcDb2dVertex
62
5
10
130.634372
20
132.942878
0
VERTEX
5
62e
100
AcDbEntity
8
1
100
AcDbVertex
100
AcDb2dVertex
62
5
10
130.962497
20
133.139753
0
VERTEX
5
62f
100
AcDbEntity
8
1
100
AcDbVertex
100
AcDb2dVertex
62
5
10
131.159372
20
133.205378
0
VERTEX
5
630
100
AcDbEntity
8
1
100
AcDbVertex
100
AcDb2dVertex
62
5
10
131.356247
20
133.205378
0
VERTEX
5
631
100
AcDbEntity
8
1
100
AcDbVertex
100
AcDb2dVertex
62
5
10
131.553122
20
133.139753
0
VERTEX
5
632
100
AcDbEntity
8
1
100
AcDbVertex
100
AcDb2dVertex
62
5
10
131.684372
20
133.008503
0
VERTEX
5
633
100
AcDbEntity
8
1
100
AcDbVertex
100
AcDb2dVertex
62
5
10
131.749997
20
132.877253
0
VERTEX
5
634
100
AcDbEntity
8
1
100
AcDbVertex
100
AcDb2dVertex
62
5
10
131.749997
20
132.746003
0
VERTEX
5
635
100
AcDbEntity
8
1
100
AcDbVertex
100
AcDb2dVertex
62
5
10
131.684372
20
132.549128
0
VERTEX
5
636
100
AcDbEntity
8
1
100
AcDbVertex
100
AcDb2dVertex
62
5
10
131.553122
20
132.417878
0
VERTEX
5
637
100
AcDbEntity
8
1
100
AcDbVertex
100
AcDb2dVertex
62
5
10
131.356247
20
132.352253
0
VERTEX
5
638
100
AcDbEntity
8
1
100
AcDbVertex
100
AcDb2dVertex
62
5
10
131.028122
20
132.352253
0
VERTEX
5
639
100
AcDbEntity
8
1
100
AcDbVertex
100
AcDb2dVertex
62
5
10
130.896872
20
132.417878
0
VERTEX
5
63a
100
AcDbEntity
8
1
100
AcDbVertex
100
AcDb2dVertex
62
5
10
130.831247
20
132.549128
0
VERTEX
5
63b
100
AcDbEntity
8
1
100
AcDbVertex
100
AcDb2dVertex
62
5
10
130.831247
20
132.614753
0
VERTEX
5
63c
100
AcDbEntity
8
1
100
AcDbVertex
100
AcDb2dVertex
62
5
10
130.896872
20
132.680378
0
VERTEX
5
63d
100
AcDbEntity
8
1
100
AcDbVertex
100
AcDb2dVertex
62
5
10
131.028122
20
132.746003
0
VERTEX
5
63e
100
AcDbEntity
8
1
100
AcDbVertex
100
AcDb2dVertex
62
5
10
131.159372
20
132.746003
0
VERTEX
5
63f
100
AcDbEntity
8
1
100
AcDbVertex
100
AcDb2dVertex
62
5
10
131.290622
20
132.680378
0
VERTEX
5
640
100
AcDbEntity
8
1
100
AcDbVertex
100
AcDb2dVertex
62
5
10
131.356247
20
132.614753
0
VERTEX
5
641
100
AcDbEntity
8
1
100
AcDbVertex
100
AcDb2dVertex
62
5
10
131.421872
20
132.483503
0
VERTEX
5
642
100
AcDbEntity
8
1
100
AcDbVertex
100
AcDb2dVertex
62
5
10
131.421872
20
132.417878
0
SEQEND
5
643
100
AcDbEntity
8
1
0
LINE
5
644
100
AcDbEntity
8
1
100
AcDbLine
6
CONTINUOUS
62
5
10
144.499984
20
129.000026
11
144.599984
21
128.900026
0
LINE
5
645
100
AcDbEntity
8
1
100
AcDbLine
6
CONTINUOUS
62
5
10
143.999984
20
125.300017
11
144.099984
21
125.100017
0
LINE
5
646
100
AcDbEntity
8
1
100
AcDbLine
6
CONTINUOUS
62
5
10
143.499997
20
129.400000
11
143.999997
21
129.900000
0
LINE
5
647
100
AcDbEntity
8
1
100
AcDbLine
6
CONTINUOUS
62
5
10
145.249987
20
123.650028
11
144.999987
21
123.250028
0
ARC
5
648
100
AcDbEntity
8
1
100
AcDbCircle
6
CONTINUOUS
62
5
10
142.999997
20
128.100000
40
0.500000
100
AcDbArc
50
89.999999
51
179.999998
0
LINE
5
649
100
AcDbEntity
8
1
100
AcDbLine
6
CONTINUOUS
62
5
10
144.010081
20
128.600000
11
142.999997
21
128.600000
0
ARC
5
64a
100
AcDbEntity
8
1
100
AcDbCircle
6
CONTINUOUS
62
5
10
142.999997
20
127.250000
40
0.500000
100
AcDbArc
50
-179.999998
51
-89.999999
0
LINE
5
64b
100
AcDbEntity
8
1
100
AcDbLine
6
CONTINUOUS
62
5
10
142.999997
20
126.750000
11
143.999984
21
126.750000
0
POLYLINE
5
64c
100
AcDbEntity
8
1
6
CONTINUOUS
62
5
100
AcDb2dPolyline
66
1
10
0.0
20
0.0
30
0.0
70
0
0
VERTEX
5
64d
100
AcDbEntity
8
1
100
AcDbVertex
100
AcDb2dVertex
62
5
10
144.499984
20
129.400000
0
VERTEX
5
64e
100
AcDbEntity
8
1
100
AcDbVertex
100
AcDb2dVertex
62
5
10
143.499997
20
129.400000
0
VERTEX
5
64f
100
AcDbEntity
8
1
100
AcDbVertex
100
AcDb2dVertex
62
5
10
143.499997
20
129.500000
0
VERTEX
5
650
100
AcDbEntity
8
1
100
AcDbVertex
100
AcDb2dVertex
62
5
10
142.499997
20
129.500000
0
SEQEND
5
651
100
AcDbEntity
8
1
0
LINE
5
652
100
AcDbEntity
8
1
100
AcDbLine
6
CONTINUOUS
62
5
10
143.999984
20
126.000000
11
142.259931
21
126.000000
0
LINE
5
653
100
AcDbEntity
8
1
100
AcDbLine
6
CONTINUOUS
62
5
10
138.749989
20
123.650028
11
138.999989
21
123.050028
0
ARC
5
654
100
AcDbEntity
8
1
100
AcDbCircle
6
CONTINUOUS
62
5
10
144.499987
20
118.950029
40
0.500000
100
AcDbArc
50
-89.999999
51
-0.000000
0
LINE
5
655
100
AcDbEntity
8
1
100
AcDbLine
6
CONTINUOUS
62
5
10
144.499987
20
118.450029
11
139.499989
21
118.450029
0
ARC
5
656
100
AcDbEntity
8
1
100
AcDbCircle
6
CONTINUOUS
62
5
10
139.499989
20
118.950029
40
0.500000
100
AcDbArc
50
-179.999998
51
-89.999999
0
POLYLINE
5
657
100
AcDbEntity
8
1
6
CONTINUOUS
62
5
100
AcDb2dPolyline
66
1
10
0.0
20
0.0
30
0.0
70
0
0
VERTEX
5
658
100
AcDbEntity
8
1
100
AcDbVertex
100
AcDb2dVertex
62
5
10
138.999989
20
118.950029
0
VERTEX
5
659
100
AcDbEntity
8
1
100
AcDbVertex
100
AcDb2dVertex
62
5
10
138.999989
20
123.050028
0
VERTEX
5
65a
100
AcDbEntity
8
1
100
AcDbVertex
100
AcDb2dVertex
62
5
10
142.999988
20
123.050028
0
SEQEND
5
65b
100
AcDbEntity
8
1
0
POLYLINE
5
65c
100
AcDbEntity
8
1
6
CONTINUOUS
62
5
100
AcDb2dPolyline
66
1
10
0.0
20
0.0
30
0.0
70
0
0
VERTEX
5
65d
100
AcDbEntity
8
1
100
AcDbVertex
100
AcDb2dVertex
62
5
10
138.999989
20
121.250028
0
VERTEX
5
65e
100
AcDbEntity
8
1
100
AcDbVertex
100
AcDb2dVertex
62
5
10
140.499988
20
120.250029
0
VERTEX
5
65f
100
AcDbEntity
8
1
100
AcDbVertex
100
AcDb2dVertex
62
5
10
142.999988
20
120.250029
0
VERTEX
5
660
100
AcDbEntity
8
1
100
AcDbVertex
100
AcDb2dVertex
62
5
10
142.999988
20
123.250028
0
VERTEX
5
661
100
AcDbEntity
8
1
100
AcDbVertex
100
AcDb2dVertex
62
5
10
144.999987
20
123.250028
0
VERTEX
5
662
100
AcDbEntity
8
1
100
AcDbVertex
100
AcDb2dVertex
62
5
10
144.999987
20
118.950029
0
SEQEND
5
663
100
AcDbEntity
8
1
0
ARC
5
664
100
AcDbEntity
8
1
100
AcDbCircle
6
CONTINUOUS
62
5
10
144.499987
20
118.950029
40
0.500000
100
AcDbArc
50
-89.999999
51
0.000000
0
LINE
5
665
100
AcDbEntity
8
1
100
AcDbLine
6
CONTINUOUS
62
5
10
144.499987
20
118.450029
11
139.499989
21
118.450029
0
ARC
5
666
100
AcDbEntity
8
1
100
AcDbCircle
6
CONTINUOUS
62
5
10
139.499989
20
118.950029
40
0.500000
100
AcDbArc
50
-179.999998
51
-89.999999
0
POLYLINE
5
667
100
AcDbEntity
8
1
6
CONTINUOUS
62
5
100
AcDb2dPolyline
66
1
10
0.0
20
0.0
30
0.0
70
0
0
VERTEX
5
668
100
AcDbEntity
8
1
100
AcDbVertex
100
AcDb2dVertex
62
5
10
138.999989
20
118.950029
0
VERTEX
5
669
100
AcDbEntity
8
1
100
AcDbVertex
100
AcDb2dVertex
62
5
10
138.999989
20
123.050028
0
VERTEX
5
66a
100
AcDbEntity
8
1
100
AcDbVertex
100
AcDb2dVertex
62
5
10
142.999988
20
123.050028
0
SEQEND
5
66b
100
AcDbEntity
8
1
0
POLYLINE
5
66c
100
AcDbEntity
8
1
6
CONTINUOUS
62
5
100
AcDb2dPolyline
66
1
10
0.0
20
0.0
30
0.0
70
0
0
VERTEX
5
66d
100
AcDbEntity
8
1
100
AcDbVertex
100
AcDb2dVertex
62
5
10
142.999988
20
123.250028
0
VERTEX
5
66e
100
AcDbEntity
8
1
100
AcDbVertex
100
AcDb2dVertex
62
5
10
144.999987
20
123.250028
0
VERTEX
5
66f
100
AcDbEntity
8
1
100
AcDbVertex
100
AcDb2dVertex
62
5
10
144.999987
20
118.950029
0
SEQEND
5
670
100
AcDbEntity
8
1
0
ARC
5
671
100
AcDbEntity
8
1
100
AcDbCircle
6
CONTINUOUS
62
5
10
144.499987
20
118.950029
40
0.750000
100
AcDbArc
50
-89.999999
51
0.000000
0
LINE
5
672
100
AcDbEntity
8
1
100
AcDbLine
6
CONTINUOUS
62
5
10
144.499987
20
118.200029
11
139.499989
21
118.200029
0
ARC
5
673
100
AcDbEntity
8
1
100
AcDbCircle
6
CONTINUOUS
62
5
10
139.499989
20
118.950029
40
0.750000
100
AcDbArc
50
179.999998
51
-89.999999
0
POLYLINE
5
674
100
AcDbEntity
8
1
6
CONTINUOUS
62
5
100
AcDb2dPolyline
66
1
10
0.0
20
0.0
30
0.0
70
0
0
VERTEX
5
675
100
AcDbEntity
8
1
100
AcDbVertex
100
AcDb2dVertex
62
5
10
138.749989
20
118.950029
0
VERTEX
5
676
100
AcDbEntity
8
1
100
AcDbVertex
100
AcDb2dVertex
62
5
10
138.749989
20
123.650028
0
VERTEX
5
677
100
AcDbEntity
8
1
100
AcDbVertex
100
AcDb2dVertex
62
5
10
145.249987
20
123.650028
0
VERTEX
5
678
100
AcDbEntity
8
1
100
AcDbVertex
100
AcDb2dVertex
62
5
10
145.249987
20
118.950029
0
SEQEND
5
679
100
AcDbEntity
8
1
0
LINE
5
67a
100
AcDbEntity
8
1
100
AcDbLine
6
CONTINUOUS
62
5
10
135.049997
20
129.550000
11
135.049997
21
130.700000
0
POLYLINE
5
67b
100
AcDbEntity
8
1
6
CONTINUOUS
62
5
100
AcDb2dPolyline
66
1
10
0.0
20
0.0
30
0.0
70
0
0
VERTEX
5
67c
100
AcDbEntity
8
1
100
AcDbVertex
100
AcDb2dVertex
62
5
10
135.049997
20
126.650000
0
VERTEX
5
67d
100
AcDbEntity
8
1
100
AcDbVertex
100
AcDb2dVertex
62
5
10
134.499997
20
130.200000
0
VERTEX
5
67e
100
AcDbEntity
8
1
100
AcDbVertex
100
AcDb2dVertex
62
5
10
134.499997
20
130.700000
0
SEQEND
5
67f
100
AcDbEntity
8
1
0
LINE
5
680
100
AcDbEntity
8
1
100
AcDbLine
6
CONTINUOUS
62
5
10
136.199997
20
130.550000
11
136.374997
21
130.725000
0
LINE
5
681
100
AcDbEntity
8
1
100
AcDbLine
6
CONTINUOUS
62
5
10
139.699997
20
131.000000
11
139.849997
21
131.000000
0
LINE
5
682
100
AcDbEntity
8
1
100
AcDbLine
6
CONTINUOUS
62
5
10
139.849997
20
133.000000
11
139.699997
21
133.000000
0
LINE
5
683
100
AcDbEntity
8
1
100
AcDbLine
6
CONTINUOUS
62
5
10
148.499983
20
128.000026
11
148.399983
21
127.900026
0
ARC
5
684
100
AcDbEntity
8
1
100
AcDbCircle
6
CONTINUOUS
62
5
10
149.299997
20
127.800000
40
1.000000
100
AcDbArc
50
89.999999
51
143.131413
0
LINE
5
685
100
AcDbEntity
8
1
100
AcDbLine
6
CONTINUOUS
62
5
10
149.299997
20
128.800000
11
149.949997
21
128.800000
0
ARC
5
686
100
AcDbEntity
8
1
100
AcDbCircle
6
CONTINUOUS
62
5
10
149.949997
20
129.300000
40
0.500000
100
AcDbArc
50
-89.999999
51
-0.000000
0
LINE
5
687
100
AcDbEntity
8
1
100
AcDbLine
6
CONTINUOUS
62
5
10
150.449997
20
129.300000
11
150.449997
21
131.100000
0
ARC
5
688
100
AcDbEntity
8
1
100
AcDbCircle
6
CONTINUOUS
62
5
10
149.949997
20
131.100000
40
0.500000
100
AcDbArc
50
-0.000000
51
89.999999
0
LINE
5
689
100
AcDbEntity
8
1
100
AcDbLine
6
CONTINUOUS
62
5
10
149.949997
20
131.600000
11
149.299997
21
131.600000
0
ARC
5
68a
100
AcDbEntity
8
1
100
AcDbCircle
6
CONTINUOUS
62
5
10
149.299997
20
132.600000
40
1.000000
100
AcDbArc
50
-143.131413
51
-89.999999
0
ARC
5
68b
100
AcDbEntity
8
1
100
AcDbCircle
6
CONTINUOUS
62
5
10
147.999983
20
118.000029
40
0.500000
100
AcDbArc
50
-89.999999
51
0.000000
0
LINE
5
68c
100
AcDbEntity
8
1
100
AcDbLine
6
CONTINUOUS
62
5
10
148.499983
20
118.800029
11
148.499983
21
118.000029
0
LINE
5
68d
100
AcDbEntity
8
1
100
AcDbLine
6
CONTINUOUS
62
5
10
149.599997
20
106.750033
11
149.599997
21
104.000034
0
ARC
5
68e
100
AcDbEntity
8
1
100
AcDbCircle
6
CONTINUOUS
62
5
10
140.029892
20
105.000034
40
1.000000
100
AcDbArc
50
-89.999999
51
-39.644175
0
LINE
5
68f
100
AcDbEntity
8
1
100
AcDbLine
6
CONTINUOUS
62
5
10
140.799913
20
104.362016
11
146.070005
21
110.722471
0
ARC
5
690
100
AcDbEntity
8
1
100
AcDbCircle
6
CONTINUOUS
62
5
10
145.299913
20
111.360527
40
1.000079
100
AcDbArc
50
-39.643238
51
-0.002167
0
LINE
5
691
100
AcDbEntity
8
1
100
AcDbLine
6
CONTINUOUS
62
5
10
125.286361
20
133.336628
11
126.205111
21
133.402253
0
POLYLINE
5
692
100
AcDbEntity
8
1
6
CONTINUOUS
62
5
100
AcDb2dPolyline
66
1
10
0.0
20
0.0
30
0.0
70
0
0
VERTEX
5
693
100
AcDbEntity
8
1
100
AcDbVertex
100
AcDb2dVertex
62
5
10
125.745736
20
133.664753
0
VERTEX
5
694
100
AcDbEntity
8
1
100
AcDbVertex
100
AcDb2dVertex
62
5
10
125.680111
20
133.074128
0
VERTEX
5
695
100
AcDbEntity
8
1
100
AcDbVertex
100
AcDb2dVertex
62
5
10
125.680111
20
132.614753
0
VERTEX
5
696
100
AcDbEntity
8
1
100
AcDbVertex
100
AcDb2dVertex
62
5
10
125.745736
20
132.352253
0
SEQEND
5
697
100
AcDbEntity
8
1
0
POLYLINE
5
698
100
AcDbEntity
8
1
6
CONTINUOUS
62
5
100
AcDb2dPolyline
66
1
10
0.0
20
0.0
30
0.0
70
0
0
VERTEX
5
699
100
AcDbEntity
8
1
100
AcDbVertex
100
AcDb2dVertex
62
5
10
126.139486
20
133.205378
0
VERTEX
5
69a
100
AcDbEntity
8
1
100
AcDbVertex
100
AcDb2dVertex
62
5
10
126.073861
20
133.008503
0
VERTEX
5
69b
100
AcDbEntity
8
1
100
AcDbVertex
100
AcDb2dVertex
62
5
10
125.942611
20
132.811628
0
VERTEX
5
69c
100
AcDbEntity
8
1
100
AcDbVertex
100
AcDb2dVertex
62
5
10
125.811361
20
132.614753
0
VERTEX
5
69d
100
AcDbEntity
8
1
100
AcDbVertex
100
AcDb2dVertex
62
5
10
125.417611
20
132.352253
0
VERTEX
5
69e
100
AcDbEntity
8
1
100
AcDbVertex
100
AcDb2dVertex
62
5
10
125.351986
20
132.352253
0
VERTEX
5
69f
100
AcDbEntity
8
1
100
AcDbVertex
100
AcDb2dVertex
62
5
10
125.286361
20
132.483503
0
VERTEX
5
6a0
100
AcDbEntity
8
1
100
AcDbVertex
100
AcDb2dVertex
62
5
10
125.286361
20
132.680378
0
VERTEX
5
6a1
100
AcDbEntity
8
1
100
AcDbVertex
100
AcDb2dVertex
62
5
10
125.351986
20
132.811628
0
VERTEX
5
6a2
100
AcDbEntity
8
1
100
AcDbVertex
100
AcDb2dVertex
62
5
10
125.483236
20
132.942878
0
VERTEX
5
6a3
100
AcDbEntity
8
1
100
AcDbVertex
100
AcDb2dVertex
62
5
10
125.680111
20
133.074128
0
VERTEX
5
6a4
100
AcDbEntity
8
1
100
AcDbVertex
100
AcDb2dVertex
62
5
10
125.942611
20
133.139753
0
VERTEX
5
6a5
100
AcDbEntity
8
1
100
AcDbVertex
100
AcDb2dVertex
62
5
10
126.205111
20
133.139753
0
VERTEX
5
6a6
100
AcDbEntity
8
1
100
AcDbVertex
100
AcDb2dVertex
62
5
10
126.467611
20
132.942878
0
VERTEX
5
6a7
100
AcDbEntity
8
1
100
AcDbVertex
100
AcDb2dVertex
62
5
10
126.533236
20
132.811628
0
VERTEX
5
6a8
100
AcDbEntity
8
1
100
AcDbVertex
100
AcDb2dVertex
62
5
10
126.533236
20
132.614753
0
VERTEX
5
6a9
100
AcDbEntity
8
1
100
AcDbVertex
100
AcDb2dVertex
62
5
10
126.336361
20
132.352253
0
VERTEX
5
6aa
100
AcDbEntity
8
1
100
AcDbVertex
100
AcDb2dVertex
62
5
10
126.073861
20
132.286628
0
SEQEND
5
6ab
100
AcDbEntity
8
1
0
ARC
5
6ac
100
AcDbEntity
8
1
100
AcDbCircle
6
CONTINUOUS
62
5
10
122.149997
20
133.875000
40
0.150000
100
AcDbArc
50
-89.999999
51
89.999999
0
LINE
5
6ad
100
AcDbEntity
8
1
100
AcDbLine
6
CONTINUOUS
62
5
10
122.149997
20
134.025000
11
120.449997
21
134.025000
0
ARC
5
6ae
100
AcDbEntity
8
1
100
AcDbCircle
6
CONTINUOUS
62
5
10
120.449997
20
133.875000
40
0.150000
100
AcDbArc
50
89.999999
51
-89.999999
0
LINE
5
6af
100
AcDbEntity
8
1
100
AcDbLine
6
CONTINUOUS
62
5
10
120.449997
20
133.725000
11
122.149997
21
133.725000
0
ARC
5
6b0
100
AcDbEntity
8
1
100
AcDbCircle
6
CONTINUOUS
62
5
10
121.649997
20
133.175000
40
0.150000
100
AcDbArc
50
-89.999999
51
89.999999
0
LINE
5
6b1
100
AcDbEntity
8
1
100
AcDbLine
6
CONTINUOUS
62
5
10
121.649997
20
133.325000
11
120.949997
21
133.325000
0
ARC
5
6b2
100
AcDbEntity
8
1
100
AcDbCircle
6
CONTINUOUS
62
5
10
120.949997
20
133.175000
40
0.150000
100
AcDbArc
50
89.999999
51
-89.999999
0
LINE
5
6b3
100
AcDbEntity
8
1
100
AcDbLine
6
CONTINUOUS
62
5
10
120.949997
20
133.025000
11
121.649997
21
133.025000
0
LINE
5
6b4
100
AcDbEntity
8
1
100
AcDbLine
6
CONTINUOUS
62
5
10
108.599989
20
132.100024
11
108.499989
21
132.000025
0
LINE
5
6b5
100
AcDbEntity
8
1
100
AcDbLine
6
CONTINUOUS
62
5
10
118.249992
20
123.650028
11
117.999992
21
123.250028
0
LINE
5
6b6
100
AcDbEntity
8
1
100
AcDbLine
6
CONTINUOUS
62
5
10
114.199993
20
125.300017
11
114.099993
21
125.100017
0
LINE
5
6b7
100
AcDbEntity
8
1
100
AcDbLine
6
CONTINUOUS
62
5
10
112.399994
20
128.900026
11
112.499994
21
129.000026
0
LINE
5
6b8
100
AcDbEntity
8
1
100
AcDbLine
6
CONTINUOUS
62
5
10
111.749994
20
123.650028
11
111.999994
21
123.050028
0
LINE
5
6b9
100
AcDbEntity
8
1
100
AcDbLine
6
CONTINUOUS
62
5
10
108.499989
20
128.700017
11
108.599989
21
128.600017
0
ARC
5
6ba
100
AcDbEntity
8
1
100
AcDbCircle
6
CONTINUOUS
62
5
10
109.006600
20
118.003332
40
0.506616
100
AcDbArc
50
-179.626458
51
-96.556729
0
LINE
5
6bb
100
AcDbEntity
8
1
100
AcDbLine
6
CONTINUOUS
62
5
10
108.499995
20
118.800029
11
108.499995
21
118.000029
0
LINE
5
6bc
100
AcDbEntity
8
1
100
AcDbLine
6
CONTINUOUS
62
5
10
112.999997
20
129.900000
11
113.499997
21
129.400000
0
ARC
5
6bd
100
AcDbEntity
8
1
100
AcDbCircle
6
CONTINUOUS
62
5
10
113.999997
20
128.100000
40
0.500000
100
AcDbArc
50
-0.000000
51
66.869935
0
LINE
5
6be
100
AcDbEntity
8
1
100
AcDbLine
6
CONTINUOUS
62
5
10
114.199993
20
126.000000
11
114.740062
21
126.000000
0
ARC
5
6bf
100
AcDbEntity
8
1
100
AcDbCircle
6
CONTINUOUS
62
5
10
113.999997
20
127.250000
40
0.500000
100
AcDbArc
50
-66.422252
51
-0.000000
0
POLYLINE
5
6c0
100
AcDbEntity
8
1
6
CONTINUOUS
62
5
100
AcDb2dPolyline
66
1
10
0.0
20
0.0
30
0.0
70
0
0
VERTEX
5
6c1
100
AcDbEntity
8
1
100
AcDbVertex
100
AcDb2dVertex
62
5
10
114.499997
20
129.500000
0
VERTEX
5
6c2
100
AcDbEntity
8
1
100
AcDbVertex
100
AcDb2dVertex
62
5
10
113.499997
20
129.500000
0
VERTEX
5
6c3
100
AcDbEntity
8
1
100
AcDbVertex
100
AcDb2dVertex
62
5
10
113.499997
20
129.400000
0
VERTEX
5
6c4
100
AcDbEntity
8
1
100
AcDbVertex
100
AcDb2dVertex
62
5
10
112.499994
20
129.400000
0
SEQEND
5
6c5
100
AcDbEntity
8
1
0
ARC
5
6c6
100
AcDbEntity
8
1
100
AcDbCircle
6
CONTINUOUS
62
5
10
117.499992
20
118.950029
40
0.500000
100
AcDbArc
50
-89.999999
51
0.000000
0
LINE
5
6c7
100
AcDbEntity
8
1
100
AcDbLine
6
CONTINUOUS
62
5
10
117.499992
20
118.450029
11
112.499994
21
118.450029
0
ARC
5
6c8
100
AcDbEntity
8
1
100
AcDbCircle
6
CONTINUOUS
62
5
10
112.499994
20
118.950029
40
0.500000
100
AcDbArc
50
-179.999998
51
-89.999999
0
POLYLINE
5
6c9
100
AcDbEntity
8
1
6
CONTINUOUS
62
5
100
AcDb2dPolyline
66
1
10
0.0
20
0.0
30
0.0
70
0
0
VERTEX
5
6ca
100
AcDbEntity
8
1
100
AcDbVertex
100
AcDb2dVertex
62
5
10
111.999994
20
118.950029
0
VERTEX
5
6cb
100
AcDbEntity
8
1
100
AcDbVertex
100
AcDb2dVertex
62
5
10
111.999994
20
123.050028
0
VERTEX
5
6cc
100
AcDbEntity
8
1
100
AcDbVertex
100
AcDb2dVertex
62
5
10
115.999993
20
123.050028
0
SEQEND
5
6cd
100
AcDbEntity
8
1
0
POLYLINE
5
6ce
100
AcDbEntity
8
1
6
CONTINUOUS
62
5
100
AcDb2dPolyline
66
1
10
0.0
20
0.0
30
0.0
70
0
0
VERTEX
5
6cf
100
AcDbEntity
8
1
100
AcDbVertex
100
AcDb2dVertex
62
5
10
115.999993
20
123.250028
0
VERTEX
5
6d0
100
AcDbEntity
8
1
100
AcDbVertex
100
AcDb2dVertex
62
5
10
117.999992
20
123.250028
0
VERTEX
5
6d1
100
AcDbEntity
8
1
100
AcDbVertex
100
AcDb2dVertex
62
5
10
117.999992
20
118.950029
0
SEQEND
5
6d2
100
AcDbEntity
8
1
0
ARC
5
6d3
100
AcDbEntity
8
1
100
AcDbCircle
6
CONTINUOUS
62
5
10
117.499992
20
118.950029
40
0.500000
100
AcDbArc
50
-89.999999
51
-0.000000
0
LINE
5
6d4
100
AcDbEntity
8
1
100
AcDbLine
6
CONTINUOUS
62
5
10
117.499992
20
118.450029
11
112.499994
21
118.450029
0
ARC
5
6d5
100
AcDbEntity
8
1
100
AcDbCircle
6
CONTINUOUS
62
5
10
112.499994
20
118.950029
40
0.500000
100
AcDbArc
50
179.999998
51
-89.999999
0
POLYLINE
5
6d6
100
AcDbEntity
8
1
6
CONTINUOUS
62
5
100
AcDb2dPolyline
66
1
10
0.0
20
0.0
30
0.0
70
0
0
VERTEX
5
6d7
100
AcDbEntity
8
1
100
AcDbVertex
100
AcDb2dVertex
62
5
10
111.999994
20
118.950029
0
VERTEX
5
6d8
100
AcDbEntity
8
1
100
AcDbVertex
100
AcDb2dVertex
62
5
10
111.999994
20
123.050028
0
VERTEX
5
6d9
100
AcDbEntity
8
1
100
AcDbVertex
100
AcDb2dVertex
62
5
10
115.999993
20
123.050028
0
SEQEND
5
6da
100
AcDbEntity
8
1
0
POLYLINE
5
6db
100
AcDbEntity
8
1
6
CONTINUOUS
62
5
100
AcDb2dPolyline
66
1
10
0.0
20
0.0
30
0.0
70
0
0
VERTEX
5
6dc
100
AcDbEntity
8
1
100
AcDbVertex
100
AcDb2dVertex
62
5
10
111.999994
20
121.250028
0
VERTEX
5
6dd
100
AcDbEntity
8
1
100
AcDbVertex
100
AcDb2dVertex
62
5
10
113.499993
20
120.250029
0
VERTEX
5
6de
100
AcDbEntity
8
1
100
AcDbVertex
100
AcDb2dVertex
62
5
10
115.999993
20
120.250029
0
VERTEX
5
6df
100
AcDbEntity
8
1
100
AcDbVertex
100
AcDb2dVertex
62
5
10
115.999993
20
123.250028
0
VERTEX
5
6e0
100
AcDbEntity
8
1
100
AcDbVertex
100
AcDb2dVertex
62
5
10
117.999992
20
123.250028
0
VERTEX
5
6e1
100
AcDbEntity
8
1
100
AcDbVertex
100
AcDb2dVertex
62
5
10
117.999992
20
118.950029
0
SEQEND
5
6e2
100
AcDbEntity
8
1
0
ARC
5
6e3
100
AcDbEntity
8
1
100
AcDbCircle
6
CONTINUOUS
62
5
10
117.499992
20
118.950029
40
0.750000
100
AcDbArc
50
-89.999999
51
0.000000
0
LINE
5
6e4
100
AcDbEntity
8
1
100
AcDbLine
6
CONTINUOUS
62
5
10
117.499992
20
118.200029
11
112.499994
21
118.200029
0
ARC
5
6e5
100
AcDbEntity
8
1
100
AcDbCircle
6
CONTINUOUS
62
5
10
112.499994
20
118.950029
40
0.750000
100
AcDbArc
50
179.999998
51
-89.999999
0
POLYLINE
5
6e6
100
AcDbEntity
8
1
6
CONTINUOUS
62
5
100
AcDb2dPolyline
66
1
10
0.0
20
0.0
30
0.0
70
0
0
VERTEX
5
6e7
100
AcDbEntity
8
1
100
AcDbVertex
100
AcDb2dVertex
62
5
10
111.749994
20
118.950029
0
VERTEX
5
6e8
100
AcDbEntity
8
1
100
AcDbVertex
100
AcDb2dVertex
62
5
10
111.749994
20
123.650028
0
VERTEX
5
6e9
100
AcDbEntity
8
1
100
AcDbVertex
100
AcDb2dVertex
62
5
10
118.249992
20
123.650028
0
VERTEX
5
6ea
100
AcDbEntity
8
1
100
AcDbVertex
100
AcDb2dVertex
62
5
10
118.249992
20
118.950029
0
SEQEND
5
6eb
100
AcDbEntity
8
1
0
LINE
5
6ec
100
AcDbEntity
8
1
100
AcDbLine
6
CONTINUOUS
62
5
10
121.949997
20
129.550000
11
121.949997
21
130.700000
0
POLYLINE
5
6ed
100
AcDbEntity
8
1
6
CONTINUOUS
62
5
100
AcDb2dPolyline
66
1
10
0.0
20
0.0
30
0.0
70
0
0
VERTEX
5
6ee
100
AcDbEntity
8
1
100
AcDbVertex
100
AcDb2dVertex
62
5
10
121.949997
20
126.650000
0
VERTEX
5
6ef
100
AcDbEntity
8
1
100
AcDbVertex
100
AcDb2dVertex
62
5
10
122.499997
20
130.200000
0
VERTEX
5
6f0
100
AcDbEntity
8
1
100
AcDbVertex
100
AcDb2dVertex
62
5
10
122.499997
20
130.700000
0
SEQEND
5
6f1
100
AcDbEntity
8
1
0
LINE
5
6f2
100
AcDbEntity
8
1
100
AcDbLine
6
CONTINUOUS
62
5
10
120.624997
20
130.725000
11
120.799997
21
130.550000
0
LINE
5
6f3
100
AcDbEntity
8
1
100
AcDbLine
6
CONTINUOUS
62
5
10
117.299997
20
133.000000
11
117.149997
21
133.000000
0
LINE
5
6f4
100
AcDbEntity
8
1
100
AcDbLine
6
CONTINUOUS
62
5
10
117.149997
20
131.000000
11
117.299997
21
131.000000
0
ARC
5
6f5
100
AcDbEntity
8
1
100
AcDbCircle
6
CONTINUOUS
62
5
10
107.699997
20
132.600000
40
1.000000
100
AcDbArc
50
-89.999999
51
-36.870636
0
LINE
5
6f6
100
AcDbEntity
8
1
100
AcDbLine
6
CONTINUOUS
62
5
10
107.699997
20
131.600000
11
107.049997
21
131.600000
0
ARC
5
6f7
100
AcDbEntity
8
1
100
AcDbCircle
6
CONTINUOUS
62
5
10
107.049997
20
131.100000
40
0.500000
100
AcDbArc
50
89.999999
51
-179.999998
0
LINE
5
6f8
100
AcDbEntity
8
1
100
AcDbLine
6
CONTINUOUS
62
5
10
106.549997
20
131.100000
11
106.549997
21
129.300000
0
ARC
5
6f9
100
AcDbEntity
8
1
100
AcDbCircle
6
CONTINUOUS
62
5
10
107.049997
20
129.300000
40
0.500000
100
AcDbArc
50
-179.999998
51
-89.999999
0
LINE
5
6fa
100
AcDbEntity
8
1
100
AcDbLine
6
CONTINUOUS
62
5
10
107.049997
20
128.800000
11
107.699997
21
128.800000
0
ARC
5
6fb
100
AcDbEntity
8
1
100
AcDbCircle
6
CONTINUOUS
62
5
10
107.699997
20
127.800000
40
1.000000
100
AcDbArc
50
64.160275
51
89.999999
0
LINE
5
6fc
100
AcDbEntity
8
1
100
AcDbLine
6
CONTINUOUS
62
5
10
107.499989
20
132.000024
11
107.499989
21
131.600000
0
LINE
5
6fd
100
AcDbEntity
8
1
100
AcDbLine
6
CONTINUOUS
62
5
10
107.499989
20
128.800000
11
107.499989
21
128.700017
0
ARC
5
6fe
100
AcDbEntity
8
1
100
AcDbCircle
6
CONTINUOUS
62
5
10
106.299996
20
120.500029
40
0.500000
100
AcDbArc
50
-179.681193
51
-89.999999
0
LINE
5
6ff
100
AcDbEntity
8
1
100
AcDbLine
6
CONTINUOUS
62
5
10
107.099995
20
120.000029
11
106.299996
21
120.000029
0
ARC
5
700
100
AcDbEntity
8
1
100
AcDbCircle
6
CONTINUOUS
62
5
10
106.299996
20
128.200017
40
0.500000
100
AcDbArc
50
89.999999
51
-179.999998
0
POLYLINE
5
701
100
AcDbEntity
8
1
6
CONTINUOUS
62
5
100
AcDb2dPolyline
66
1
10
0.0
20
0.0
30
0.0
70
0
0
VERTEX
5
702
100
AcDbEntity
8
1
100
AcDbVertex
100
AcDb2dVertex
62
5
10
106.299996
20
128.700017
0
VERTEX
5
703
100
AcDbEntity
8
1
100
AcDbVertex
100
AcDb2dVertex
62
5
10
108.499989
20
128.700017
0
VERTEX
5
704
100
AcDbEntity
8
1
100
AcDbVertex
100
AcDb2dVertex
62
5
10
108.499989
20
132.000025
0
VERTEX
5
705
100
AcDbEntity
8
1
100
AcDbVertex
100
AcDb2dVertex
62
5
10
106.299996
20
132.000024
0
SEQEND
5
706
100
AcDbEntity
8
1
0
ARC
5
707
100
AcDbEntity
8
1
100
AcDbCircle
6
CONTINUOUS
62
5
10
106.299996
20
132.500024
40
0.500000
100
AcDbArc
50
-179.681193
51
-89.999999
0
ARC
5
708
100
AcDbEntity
8
1
100
AcDbCircle
6
CONTINUOUS
62
5
10
111.699994
20
111.360489
40
1.000000
100
AcDbArc
50
179.999998
51
-140.355824
0
LINE
5
709
100
AcDbEntity
8
1
100
AcDbLine
6
CONTINUOUS
62
5
10
110.929973
20
110.722471
11
116.200064
21
104.362016
0
ARC
5
70a
100
AcDbEntity
8
1
100
AcDbCircle
6
CONTINUOUS
62
5
10
116.970086
20
105.000033
40
1.000000
100
AcDbArc
50
-140.355824
51
-89.999999
0
CIRCLE
5
70b
100
AcDbEntity
8
1
100
AcDbCircle
6
CONTINUOUS
62
5
10
128.499997
20
109.500032
40
1.500000
0
LINE
5
70c
100
AcDbEntity
8
1
100
AcDbLine
6
CONTINUOUS
62
5
10
122.499997
20
130.200000
11
134.499997
21
130.200000
0
ARC
5
70d
100
AcDbEntity
8
1
100
AcDbCircle
6
CONTINUOUS
62
5
10
124.999989
20
118.250029
40
2.499999
100
AcDbArc
50
89.999999
51
-89.999999
0
LINE
5
70e
100
AcDbEntity
8
1
100
AcDbLine
6
CONTINUOUS
62
5
10
124.999989
20
115.750030
11
130.499989
21
115.750030
0
ARC
5
70f
100
AcDbEntity
8
1
100
AcDbCircle
6
CONTINUOUS
62
5
10
130.499989
20
118.250029
40
2.499999
100
AcDbArc
50
-89.999999
51
89.999999
0
LINE
5
710
100
AcDbEntity
8
1
100
AcDbLine
6
CONTINUOUS
62
5
10
130.499989
20
120.750029
11
124.999989
21
120.750029
0
LINE
5
711
100
AcDbEntity
8
1
100
AcDbLine
6
CONTINUOUS
62
5
10
121.949997
20
126.650000
11
135.049997
21
126.650000
0
ARC
5
712
100
AcDbEntity
8
1
100
AcDbCircle
6
CONTINUOUS
62
5
10
124.999989
20
118.250029
40
3.749999
100
AcDbArc
50
89.999999
51
-89.999999
0
LINE
5
713
100
AcDbEntity
8
1
100
AcDbLine
6
CONTINUOUS
62
5
10
124.999989
20
114.500030
11
130.499989
21
114.500030
0
ARC
5
714
100
AcDbEntity
8
1
100
AcDbCircle
6
CONTINUOUS
62
5
10
130.499989
20
118.250029
40
3.749999
100
AcDbArc
50
-89.999999
51
89.999999
0
LINE
5
715
100
AcDbEntity
8
1
100
AcDbLine
6
CONTINUOUS
62
5
10
130.499989
20
122.000028
11
124.999989
21
122.000028
0
ARC
5
716
100
AcDbEntity
8
1
100
AcDbCircle
6
CONTINUOUS
62
5
10
130.499989
20
118.250029
40
4.399999
100
AcDbArc
50
-89.999999
51
89.999999
0
LINE
5
717
100
AcDbEntity
8
1
100
AcDbLine
6
CONTINUOUS
62
5
10
130.499989
20
122.650028
11
124.999989
21
122.650028
0
ARC
5
718
100
AcDbEntity
8
1
100
AcDbCircle
6
CONTINUOUS
62
5
10
124.999989
20
118.250029
40
4.399999
100
AcDbArc
50
89.999999
51
-89.999999
0
LINE
5
719
100
AcDbEntity
8
1
100
AcDbLine
6
CONTINUOUS
62
5
10
120.949997
20
125.650000
11
136.049997
21
125.650000
0
LINE
5
71a
100
AcDbEntity
8
1
100
AcDbLine
6
CONTINUOUS
62
5
10
114.014286
20
107.000017
11
142.985707
21
107.000017
0
ARC
5
71b
100
AcDbEntity
8
1
100
AcDbCircle
6
CONTINUOUS
62
5
10
111.199994
20
114.350030
40
0.500000
100
AcDbArc
50
-179.999998
51
-89.999999
0
LINE
5
71c
100
AcDbEntity
8
1
100
AcDbLine
6
CONTINUOUS
62
5
10
111.199994
20
113.850031
11
145.799984
21
113.850031
0
ARC
5
71d
100
AcDbEntity
8
1
100
AcDbCircle
6
CONTINUOUS
62
5
10
145.799984
20
114.350030
40
0.500000
100
AcDbArc
50
-89.999999
51
-0.000000
0
LINE
5
71e
100
AcDbEntity
8
1
100
AcDbLine
6
CONTINUOUS
62
5
10
133.499997
20
130.700000
11
133.499997
21
130.725000
0
LINE
5
71f
100
AcDbEntity
8
1
100
AcDbLine
6
CONTINUOUS
62
5
10
123.499997
20
130.725000
11
123.499997
21
130.700000
0
LINE
5
720
100
AcDbEntity
8
1
100
AcDbLine
6
CONTINUOUS
62
5
10
134.999997
20
130.700000
11
134.999997
21
130.725000
0
LINE
5
721
100
AcDbEntity
8
1
100
AcDbLine
6
CONTINUOUS
62
5
10
121.999997
20
130.725000
11
121.999997
21
130.700000
0
LINE
5
722
100
AcDbEntity
8
1
100
AcDbLine
6
CONTINUOUS
62
5
10
121.949997
20
130.700000
11
135.049997
21
130.700000
0
ARC
5
723
100
AcDbEntity
8
1
100
AcDbCircle
6
CONTINUOUS
62
5
10
149.999982
20
141.750031
40
0.500000
100
AcDbArc
50
89.999999
51
179.999998
0
LINE
5
724
100
AcDbEntity
8
1
100
AcDbLine
6
CONTINUOUS
62
5
10
149.999982
20
142.250031
11
150.499982
21
142.250031
0
ARC
5
725
100
AcDbEntity
8
1
100
AcDbCircle
6
CONTINUOUS
62
5
10
150.499982
20
141.750031
40
0.500000
100
AcDbArc
50
-0.000000
51
89.999999
0
LINE
5
726
100
AcDbEntity
8
1
100
AcDbLine
6
CONTINUOUS
62
5
10
150.999982
20
141.750031
11
150.999982
21
132.250030
0
ARC
5
727
100
AcDbEntity
8
1
100
AcDbCircle
6
CONTINUOUS
62
5
10
150.499982
20
132.250030
40
0.500000
100
AcDbArc
50
-89.999999
51
-0.000000
0
LINE
5
728
100
AcDbEntity
8
1
100
AcDbLine
6
CONTINUOUS
62
5
10
150.499982
20
131.750031
11
149.999982
21
131.750031
0
ARC
5
729
100
AcDbEntity
8
1
100
AcDbCircle
6
CONTINUOUS
62
5
10
149.999982
20
132.250030
40
0.500000
100
AcDbArc
50
179.999998
51
-89.999999
0
ARC
5
72a
100
AcDbEntity
8
1
100
AcDbCircle
6
CONTINUOUS
62
5
10
150.251305
20
132.250394
40
0.500364
100
AcDbArc
50
-179.875091
51
-0.041624
0
LINE
5
72b
100
AcDbEntity
8
1
100
AcDbLine
6
CONTINUOUS
62
5
10
150.751669
20
132.250031
11
150.751669
21
141.750031
0
ARC
5
72c
100
AcDbEntity
8
1
100
AcDbCircle
6
CONTINUOUS
62
5
10
150.251305
20
141.749667
40
0.500364
100
AcDbArc
50
0.041625
51
179.875091
0
LINE
5
72d
100
AcDbEntity
8
1
100
AcDbLine
6
CONTINUOUS
62
5
10
149.750943
20
141.750758
11
149.750943
21
132.249303
0
ARC
5
72e
100
AcDbEntity
8
1
100
AcDbCircle
6
CONTINUOUS
62
5
10
151.199982
20
144.300022
40
0.500000
100
AcDbArc
50
-0.000000
51
89.999999
0
ARC
5
72f
100
AcDbEntity
8
1
100
AcDbCircle
6
CONTINUOUS
62
5
10
151.199982
20
129.700026
40
0.500000
100
AcDbArc
50
-89.999999
51
-0.000000
0
LINE
5
730
100
AcDbEntity
8
1
100
AcDbLine
6
CONTINUOUS
62
5
10
151.199982
20
129.200026
11
150.439900
21
129.200026
0
LINE
5
731
100
AcDbEntity
8
1
100
AcDbLine
6
CONTINUOUS
62
5
10
149.499983
20
131.600000
11
149.499983
21
142.300000
0
LINE
5
732
100
AcDbEntity
8
1
100
AcDbLine
6
CONTINUOUS
62
5
10
150.589890
20
144.800021
11
151.199982
21
144.800021
0
LINE
5
733
100
AcDbEntity
8
1
100
AcDbLine
6
CONTINUOUS
62
5
10
143.999997
20
135.100000
11
143.499997
21
135.600000
0
POLYLINE
5
734
100
AcDbEntity
8
1
6
CONTINUOUS
62
5
100
AcDb2dPolyline
66
1
10
0.0
20
0.0
30
0.0
70
1
0
VERTEX
5
735
100
AcDbEntity
8
1
100
AcDbVertex
100
AcDb2dVertex
62
5
10
127.499997
20
135.725000
0
VERTEX
5
736
100
AcDbEntity
8
1
100
AcDbVertex
100
AcDb2dVertex
62
5
10
127.499997
20
134.725000
0
VERTEX
5
737
100
AcDbEntity
8
1
100
AcDbVertex
100
AcDb2dVertex
62
5
10
129.499997
20
134.725000
0
VERTEX
5
738
100
AcDbEntity
8
1
100
AcDbVertex
100
AcDb2dVertex
62
5
10
129.499997
20
135.725000
0
VERTEX
5
739
100
AcDbEntity
8
1
100
AcDbVertex
100
AcDb2dVertex
62
5
10
129.999997
20
135.725000
0
VERTEX
5
73a
100
AcDbEntity
8
1
100
AcDbVertex
100
AcDb2dVertex
62
5
10
128.499997
20
137.225000
0
VERTEX
5
73b
100
AcDbEntity
8
1
100
AcDbVertex
100
AcDb2dVertex
62
5
10
126.999997
20
135.725000
0
VERTEX
5
73c
100
AcDbEntity
8
1
100
AcDbVertex
100
AcDb2dVertex
62
5
10
127.499997
20
135.725000
0
SEQEND
5
73d
100
AcDbEntity
8
1
0
LINE
5
73e
100
AcDbEntity
8
1
100
AcDbLine
6
CONTINUOUS
62
5
10
113.499997
20
135.600000
11
112.999997
21
135.100000
0
ARC
5
73f
100
AcDbEntity
8
1
100
AcDbCircle
6
CONTINUOUS
62
5
10
121.299997
20
136.225000
40
0.150000
100
AcDbArc
50
0.000000
51
179.999998
0
POLYLINE
5
740
100
AcDbEntity
8
1
6
CONTINUOUS
62
5
100
AcDb2dPolyline
66
1
10
0.0
20
0.0
30
0.0
70
0
0
VERTEX
5
741
100
AcDbEntity
8
1
100
AcDbVertex
100
AcDb2dVertex
62
5
10
121.449997
20
136.225000
0
VERTEX
5
742
100
AcDbEntity
8
1
100
AcDbVertex
100
AcDb2dVertex
62
5
10
121.449997
20
134.875000
0
VERTEX
5
743
100
AcDbEntity
8
1
100
AcDbVertex
100
AcDb2dVertex
62
5
10
122.899997
20
134.875000
0
SEQEND
5
744
100
AcDbEntity
8
1
0
ARC
5
745
100
AcDbEntity
8
1
100
AcDbCircle
6
CONTINUOUS
62
5
10
122.899997
20
134.725000
40
0.150000
100
AcDbArc
50
-89.999999
51
89.999999
0
LINE
5
746
100
AcDbEntity
8
1
100
AcDbLine
6
CONTINUOUS
62
5
10
122.899997
20
134.575000
11
119.699997
21
134.575000
0
ARC
5
747
100
AcDbEntity
8
1
100
AcDbCircle
6
CONTINUOUS
62
5
10
119.699997
20
134.725000
40
0.150000
100
AcDbArc
50
89.999999
51
-89.999999
0
POLYLINE
5
748
100
AcDbEntity
8
1
6
CONTINUOUS
62
5
100
AcDb2dPolyline
66
1
10
0.0
20
0.0
30
0.0
70
0
0
VERTEX
5
749
100
AcDbEntity
8
1
100
AcDbVertex
100
AcDb2dVertex
62
5
10
119.699997
20
134.875000
0
VERTEX
5
74a
100
AcDbEntity
8
1
100
AcDbVertex
100
AcDb2dVertex
62
5
10
121.149997
20
134.875000
0
VERTEX
5
74b
100
AcDbEntity
8
1
100
AcDbVertex
100
AcDb2dVertex
62
5
10
121.149997
20
136.225000
0
SEQEND
5
74c
100
AcDbEntity
8
1
0
CIRCLE
5
74d
100
AcDbEntity
8
1
100
AcDbCircle
6
CONTINUOUS
62
5
10
121.299997
20
134.725000
40
2.100000
0
CIRCLE
5
74e
100
AcDbEntity
8
1
100
AcDbCircle
6
CONTINUOUS
62
5
10
121.299997
20
134.725000
40
2.400000
0
POLYLINE
5
74f
100
AcDbEntity
8
1
6
CONTINUOUS
62
5
100
AcDb2dPolyline
66
1
10
0.0
20
0.0
30
0.0
70
0
0
VERTEX
5
750
100
AcDbEntity
8
1
100
AcDbVertex
100
AcDb2dVertex
62
5
10
144.499984
20
129.900000
0
VERTEX
5
751
100
AcDbEntity
8
1
100
AcDbVertex
100
AcDb2dVertex
62
5
10
143.999997
20
129.900000
0
VERTEX
5
752
100
AcDbEntity
8
1
100
AcDbVertex
100
AcDb2dVertex
62
5
10
143.999997
20
135.100000
0
VERTEX
5
753
100
AcDbEntity
8
1
100
AcDbVertex
100
AcDb2dVertex
62
5
10
144.499984
20
135.100000
0
SEQEND
5
754
100
AcDbEntity
8
1
0
POLYLINE
5
755
100
AcDbEntity
8
1
6
CONTINUOUS
62
5
100
AcDb2dPolyline
66
1
10
0.0
20
0.0
30
0.0
70
1
0
VERTEX
5
756
100
AcDbEntity
8
1
100
AcDbVertex
100
AcDb2dVertex
62
5
10
139.699997
20
130.725000
0
VERTEX
5
757
100
AcDbEntity
8
1
100
AcDbVertex
100
AcDb2dVertex
62
5
10
139.699997
20
145.225000
0
VERTEX
5
758
100
AcDbEntity
8
1
100
AcDbVertex
100
AcDb2dVertex
62
5
10
117.299997
20
145.225000
0
VERTEX
5
759
100
AcDbEntity
8
1
100
AcDbVertex
100
AcDb2dVertex
62
5
10
117.299997
20
130.725000
0
SEQEND
5
75a
100
AcDbEntity
8
1
0
POLYLINE
5
75b
100
AcDbEntity
8
1
6
CONTINUOUS
62
5
100
AcDb2dPolyline
66
1
10
0.0
20
0.0
30
0.0
70
0
0
VERTEX
5
75c
100
AcDbEntity
8
1
100
AcDbVertex
100
AcDb2dVertex
62
5
10
112.499994
20
135.100000
0
VERTEX
5
75d
100
AcDbEntity
8
1
100
AcDbVertex
100
AcDb2dVertex
62
5
10
112.999997
20
135.100000
0
VERTEX
5
75e
100
AcDbEntity
8
1
100
AcDbVertex
100
AcDb2dVertex
62
5
10
112.999997
20
129.900000
0
VERTEX
5
75f
100
AcDbEntity
8
1
100
AcDbVertex
100
AcDb2dVertex
62
5
10
112.499994
20
129.900000
0
SEQEND
5
760
100
AcDbEntity
8
1
0
ARC
5
761
100
AcDbEntity
8
1
100
AcDbCircle
6
CONTINUOUS
62
5
10
151.199982
20
146.500021
40
0.500000
100
AcDbArc
50
-89.999999
51
0.000000
0
POLYLINE
5
762
100
AcDbEntity
8
1
6
CONTINUOUS
62
5
100
AcDb2dPolyline
66
1
10
0.0
20
0.0
30
0.0
70
0
0
VERTEX
5
763
100
AcDbEntity
8
1
100
AcDbVertex
100
AcDb2dVertex
62
5
10
151.199982
20
146.000021
0
VERTEX
5
764
100
AcDbEntity
8
1
100
AcDbVertex
100
AcDb2dVertex
62
5
10
148.499983
20
146.000021
0
VERTEX
5
765
100
AcDbEntity
8
1
100
AcDbVertex
100
AcDb2dVertex
62
5
10
148.499983
20
128.000026
0
VERTEX
5
766
100
AcDbEntity
8
1
100
AcDbVertex
100
AcDb2dVertex
62
5
10
151.199982
20
128.000026
0
SEQEND
5
767
100
AcDbEntity
8
1
0
ARC
5
768
100
AcDbEntity
8
1
100
AcDbCircle
6
CONTINUOUS
62
5
10
151.199982
20
127.500027
40
0.500000
100
AcDbArc
50
-0.000000
51
89.999999
0
POLYLINE
5
769
100
AcDbEntity
8
1
6
DOT2
62
5
100
AcDb2dPolyline
66
1
10
0.0
20
0.0
30
0.0
70
0
0
VERTEX
5
76a
100
AcDbEntity
8
1
100
AcDbVertex
100
AcDb2dVertex
62
5
10
72.675003
20
159.375017
0
VERTEX
5
76b
100
AcDbEntity
8
1
100
AcDbVertex
100
AcDb2dVertex
62
5
10
72.050003
20
160.312517
0
VERTEX
5
76c
100
AcDbEntity
8
1
100
AcDbVertex
100
AcDb2dVertex
62
5
10
79.550003
20
160.312517
0
SEQEND
5
76d
100
AcDbEntity
8
1
0
LINE
5
76e
100
AcDbEntity
8
1
100
AcDbLine
6
DOT2
62
5
10
79.550003
20
159.687517
11
79.550003
21
160.937517
0
POLYLINE
5
76f
100
AcDbEntity
8
1
6
DOT2
62
5
100
AcDb2dPolyline
66
1
10
0.0
20
0.0
30
0.0
70
0
0
VERTEX
5
770
100
AcDbEntity
8
1
100
AcDbVertex
100
AcDb2dVertex
62
5
10
74.237503
20
163.750017
0
VERTEX
5
771
100
AcDbEntity
8
1
100
AcDbVertex
100
AcDb2dVertex
62
5
10
72.675003
20
164.062517
0
VERTEX
5
772
100
AcDbEntity
8
1
100
AcDbVertex
100
AcDb2dVertex
62
5
10
72.050003
20
165.000017
0
VERTEX
5
773
100
AcDbEntity
8
1
100
AcDbVertex
100
AcDb2dVertex
62
5
10
72.050003
20
165.937517
0
VERTEX
5
774
100
AcDbEntity
8
1
100
AcDbVertex
100
AcDb2dVertex
62
5
10
72.362503
20
166.562517
0
VERTEX
5
775
100
AcDbEntity
8
1
100
AcDbVertex
100
AcDb2dVertex
62
5
10
73.300003
20
166.875017
0
VERTEX
5
776
100
AcDbEntity
8
1
100
AcDbVertex
100
AcDb2dVertex
62
5
10
74.237503
20
166.875017
0
VERTEX
5
777
100
AcDbEntity
8
1
100
AcDbVertex
100
AcDb2dVertex
62
5
10
75.175003
20
166.562517
0
VERTEX
5
778
100
AcDbEntity
8
1
100
AcDbVertex
100
AcDb2dVertex
62
5
10
79.550003
20
163.750017
0
VERTEX
5
779
100
AcDbEntity
8
1
100
AcDbVertex
100
AcDb2dVertex
62
5
10
79.550003
20
166.875017
0
VERTEX
5
77a
100
AcDbEntity
8
1
100
AcDbVertex
100
AcDb2dVertex
62
5
10
78.612503
20
166.875017
0
SEQEND
5
77b
100
AcDbEntity
8
1
0
POLYLINE
5
77c
100
AcDbEntity
8
1
6
DOT2
62
5
100
AcDb2dPolyline
66
1
10
0.0
20
0.0
30
0.0
70
0
0
VERTEX
5
77d
100
AcDbEntity
8
1
100
AcDbVertex
100
AcDb2dVertex
62
5
10
72.675003
20
154.375017
0
VERTEX
5
77e
100
AcDbEntity
8
1
100
AcDbVertex
100
AcDb2dVertex
62
5
10
72.050003
20
155.312517
0
VERTEX
5
77f
100
AcDbEntity
8
1
100
AcDbVertex
100
AcDb2dVertex
62
5
10
79.550003
20
155.312517
0
SEQEND
5
780
100
AcDbEntity
8
1
0
LINE
5
781
100
AcDbEntity
8
1
100
AcDbLine
6
DOT2
62
5
10
79.550003
20
154.687517
11
79.550003
21
155.937517
0
LINE
5
782
100
AcDbEntity
8
1
100
AcDbLine
6
CONTINUOUS
62
5
10
127.500000
20
42.000000
11
130.625000
21
42.000000
0
POLYLINE
5
783
100
AcDbEntity
8
1
6
CONTINUOUS
62
5
100
AcDb2dPolyline
66
1
10
0.0
20
0.0
30
0.0
70
0
0
VERTEX
5
784
100
AcDbEntity
8
1
100
AcDbVertex
100
AcDb2dVertex
62
5
10
113.125000
20
45.125000
0
VERTEX
5
785
100
AcDbEntity
8
1
100
AcDbVertex
100
AcDb2dVertex
62
5
10
114.062500
20
45.750000
0
VERTEX
5
786
100
AcDbEntity
8
1
100
AcDbVertex
100
AcDb2dVertex
62
5
10
114.062500
20
38.250000
0
SEQEND
5
787
100
AcDbEntity
8
1
0
LINE
5
788
100
AcDbEntity
8
1
100
AcDbLine
6
CONTINUOUS
62
5
10
113.437500
20
38.250000
11
114.687500
21
38.250000
0
LINE
5
789
100
AcDbEntity
8
1
100
AcDbLine
6
CONTINUOUS
62
5
10
117.500000
20
45.750000
11
120.312500
21
45.750000
0
POLYLINE
5
78a
100
AcDbEntity
8
1
6
CONTINUOUS
62
5
100
AcDb2dPolyline
66
1
10
0.0
20
0.0
30
0.0
70
0
0
VERTEX
5
78b
100
AcDbEntity
8
1
100
AcDbVertex
100
AcDb2dVertex
62
5
10
117.500000
20
45.750000
0
VERTEX
5
78c
100
AcDbEntity
8
1
100
AcDbVertex
100
AcDb2dVertex
62
5
10
117.500000
20
42.000000
0
VERTEX
5
78d
100
AcDbEntity
8
1
100
AcDbVertex
100
AcDb2dVertex
62
5
10
118.125000
20
42.625000
0
VERTEX
5
78e
100
AcDbEntity
8
1
100
AcDbVertex
100
AcDb2dVertex
62
5
10
118.750000
20
42.937500
0
VERTEX
5
78f
100
AcDbEntity
8
1
100
AcDbVertex
100
AcDb2dVertex
62
5
10
119.687500
20
42.937500
0
VERTEX
5
790
100
AcDbEntity
8
1
100
AcDbVertex
100
AcDb2dVertex
62
5
10
120.312500
20
42.625000
0
VERTEX
5
791
100
AcDbEntity
8
1
100
AcDbVertex
100
AcDb2dVertex
62
5
10
120.625000
20
41.687500
0
VERTEX
5
792
100
AcDbEntity
8
1
100
AcDbVertex
100
AcDb2dVertex
62
5
10
120.625000
20
39.812500
0
VERTEX
5
793
100
AcDbEntity
8
1
100
AcDbVertex
100
AcDb2dVertex
62
5
10
120.000000
20
38.875000
0
VERTEX
5
794
100
AcDbEntity
8
1
100
AcDbVertex
100
AcDb2dVertex
62
5
10
119.062500
20
38.250000
0
VERTEX
5
795
100
AcDbEntity
8
1
100
AcDbVertex
100
AcDb2dVertex
62
5
10
117.500000
20
38.250000
0
SEQEND
5
796
100
AcDbEntity
8
1
0
POLYLINE
5
797
100
AcDbEntity
8
1
6
CONTINUOUS
62
5
100
AcDb2dPolyline
66
1
10
0.0
20
0.0
30
0.0
70
0
0
VERTEX
5
798
100
AcDbEntity
8
1
100
AcDbVertex
100
AcDb2dVertex
62
5
10
122.500000
20
38.250000
0
VERTEX
5
799
100
AcDbEntity
8
1
100
AcDbVertex
100
AcDb2dVertex
62
5
10
124.062500
20
45.750000
0
VERTEX
5
79a
100
AcDbEntity
8
1
100
AcDbVertex
100
AcDb2dVertex
62
5
10
125.625000
20
38.250000
0
SEQEND
5
79b
100
AcDbEntity
8
1
0
LINE
5
79c
100
AcDbEntity
8
1
100
AcDbLine
6
CONTINUOUS
62
5
10
123.125000
20
40.750000
11
125.000000
21
40.750000
0
POLYLINE
5
79d
100
AcDbEntity
8
1
6
CONTINUOUS
62
5
100
AcDb2dPolyline
66
1
10
0.0
20
0.0
30
0.0
70
0
0
VERTEX
5
79e
100
AcDbEntity
8
1
100
AcDbVertex
100
AcDb2dVertex
62
5
10
133.125000
20
45.125000
0
VERTEX
5
79f
100
AcDbEntity
8
1
100
AcDbVertex
100
AcDb2dVertex
62
5
10
134.062500
20
45.750000
0
VERTEX
5
7a0
100
AcDbEntity
8
1
100
AcDbVertex
100
AcDb2dVertex
62
5
10
134.062500
20
38.250000
0
SEQEND
5
7a1
100
AcDbEntity
8
1
0
LINE
5
7a2
100
AcDbEntity
8
1
100
AcDbLine
6
CONTINUOUS
62
5
10
133.437500
20
38.250000
11
134.687500
21
38.250000
0
POLYLINE
5
7a3
100
AcDbEntity
8
1
6
CONTINUOUS
62
5
100
AcDb2dPolyline
66
1
10
0.0
20
0.0
30
0.0
70
0
0
VERTEX
5
7a4
100
AcDbEntity
8
1
100
AcDbVertex
100
AcDb2dVertex
62
5
10
137.500000
20
43.562500
0
VERTEX
5
7a5
100
AcDbEntity
8
1
100
AcDbVertex
100
AcDb2dVertex
62
5
10
137.812500
20
45.125000
0
VERTEX
5
7a6
100
AcDbEntity
8
1
100
AcDbVertex
100
AcDb2dVertex
62
5
10
138.750000
20
45.750000
0
VERTEX
5
7a7
100
AcDbEntity
8
1
100
AcDbVertex
100
AcDb2dVertex
62
5
10
139.687500
20
45.750000
0
VERTEX
5
7a8
100
AcDbEntity
8
1
100
AcDbVertex
100
AcDb2dVertex
62
5
10
140.312500
20
45.437500
0
VERTEX
5
7a9
100
AcDbEntity
8
1
100
AcDbVertex
100
AcDb2dVertex
62
5
10
140.625000
20
44.500000
0
VERTEX
5
7aa
100
AcDbEntity
8
1
100
AcDbVertex
100
AcDb2dVertex
62
5
10
140.625000
20
43.562500
0
VERTEX
5
7ab
100
AcDbEntity
8
1
100
AcDbVertex
100
AcDb2dVertex
62
5
10
140.312500
20
42.625000
0
VERTEX
5
7ac
100
AcDbEntity
8
1
100
AcDbVertex
100
AcDb2dVertex
62
5
10
137.500000
20
38.250000
0
VERTEX
5
7ad
100
AcDbEntity
8
1
100
AcDbVertex
100
AcDb2dVertex
62
5
10
140.625000
20
38.250000
0
VERTEX
5
7ae
100
AcDbEntity
8
1
100
AcDbVertex
100
AcDb2dVertex
62
5
10
140.625000
20
39.187500
0
SEQEND
5
7af
100
AcDbEntity
8
1
0
LINE
5
7b0
100
AcDbEntity
8
1
100
AcDbLine
6
CONTINUOUS
62
5
10
142.500000
20
45.750000
11
145.312500
21
45.750000
0
POLYLINE
5
7b1
100
AcDbEntity
8
1
6
CONTINUOUS
62
5
100
AcDb2dPolyline
66
1
10
0.0
20
0.0
30
0.0
70
0
0
VERTEX
5
7b2
100
AcDbEntity
8
1
100
AcDbVertex
100
AcDb2dVertex
62
5
10
142.500000
20
45.750000
0
VERTEX
5
7b3
100
AcDbEntity
8
1
100
AcDbVertex
100
AcDb2dVertex
62
5
10
142.500000
20
42.000000
0
VERTEX
5
7b4
100
AcDbEntity
8
1
100
AcDbVertex
100
AcDb2dVertex
62
5
10
143.125000
20
42.625000
0
VERTEX
5
7b5
100
AcDbEntity
8
1
100
AcDbVertex
100
AcDb2dVertex
62
5
10
143.750000
20
42.937500
0
VERTEX
5
7b6
100
AcDbEntity
8
1
100
AcDbVertex
100
AcDb2dVertex
62
5
10
144.687500
20
42.937500
0
VERTEX
5
7b7
100
AcDbEntity
8
1
100
AcDbVertex
100
AcDb2dVertex
62
5
10
145.312500
20
42.625000
0
VERTEX
5
7b8
100
AcDbEntity
8
1
100
AcDbVertex
100
AcDb2dVertex
62
5
10
145.625000
20
41.687500
0
VERTEX
5
7b9
100
AcDbEntity
8
1
100
AcDbVertex
100
AcDb2dVertex
62
5
10
145.625000
20
39.812500
0
VERTEX
5
7ba
100
AcDbEntity
8
1
100
AcDbVertex
100
AcDb2dVertex
62
5
10
145.000000
20
38.875000
0
VERTEX
5
7bb
100
AcDbEntity
8
1
100
AcDbVertex
100
AcDb2dVertex
62
5
10
144.062500
20
38.250000
0
VERTEX
5
7bc
100
AcDbEntity
8
1
100
AcDbVertex
100
AcDb2dVertex
62
5
10
142.500000
20
38.250000
0
SEQEND
5
7bd
100
AcDbEntity
8
1
0
POLYLINE
5
7be
100
AcDbEntity
8
1
6
CONTINUOUS
62
5
100
AcDb2dPolyline
66
1
10
0.0
20
0.0
30
0.0
70
0
0
VERTEX
5
7bf
100
AcDbEntity
8
1
100
AcDbVertex
100
AcDb2dVertex
62
5
10
147.500000
20
45.750000
0
VERTEX
5
7c0
100
AcDbEntity
8
1
100
AcDbVertex
100
AcDb2dVertex
62
5
10
149.062500
20
38.250000
0
VERTEX
5
7c1
100
AcDbEntity
8
1
100
AcDbVertex
100
AcDb2dVertex
62
5
10
150.625000
20
45.750000
0
SEQEND
5
7c2
100
AcDbEntity
8
1
0
POLYLINE
5
7c3
100
AcDbEntity
8
1
6
CONTINUOUS
62
5
100
AcDb2dPolyline
66
1
10
0.0
20
0.0
30
0.0
70
0
0
VERTEX
5
7c4
100
AcDbEntity
8
1
100
AcDbVertex
100
AcDb2dVertex
62
5
10
157.500000
20
38.250000
0
VERTEX
5
7c5
100
AcDbEntity
8
1
100
AcDbVertex
100
AcDb2dVertex
62
5
10
159.062500
20
45.750000
0
VERTEX
5
7c6
100
AcDbEntity
8
1
100
AcDbVertex
100
AcDb2dVertex
62
5
10
160.625000
20
38.250000
0
SEQEND
5
7c7
100
AcDbEntity
8
1
0
LINE
5
7c8
100
AcDbEntity
8
1
100
AcDbLine
6
CONTINUOUS
62
5
10
158.125000
20
40.750000
11
160.000000
21
40.750000
0
POLYLINE
5
7c9
100
AcDbEntity
8
1
6
CONTINUOUS
62
5
100
AcDb2dPolyline
66
1
10
0.0
20
0.0
30
0.0
70
0
0
VERTEX
5
7ca
100
AcDbEntity
8
1
100
AcDbVertex
100
AcDb2dVertex
62
5
10
165.625000
20
44.187500
0
VERTEX
5
7cb
100
AcDbEntity
8
1
100
AcDbVertex
100
AcDb2dVertex
62
5
10
165.312500
20
45.125000
0
VERTEX
5
7cc
100
AcDbEntity
8
1
100
AcDbVertex
100
AcDb2dVertex
62
5
10
164.687500
20
45.750000
0
VERTEX
5
7cd
100
AcDbEntity
8
1
100
AcDbVertex
100
AcDb2dVertex
62
5
10
163.750000
20
45.750000
0
VERTEX
5
7ce
100
AcDbEntity
8
1
100
AcDbVertex
100
AcDb2dVertex
62
5
10
162.812500
20
44.812500
0
VERTEX
5
7cf
100
AcDbEntity
8
1
100
AcDbVertex
100
AcDb2dVertex
62
5
10
162.500000
20
43.250000
0
VERTEX
5
7d0
100
AcDbEntity
8
1
100
AcDbVertex
100
AcDb2dVertex
62
5
10
162.500000
20
40.750000
0
VERTEX
5
7d1
100
AcDbEntity
8
1
100
AcDbVertex
100
AcDb2dVertex
62
5
10
162.812500
20
39.187500
0
VERTEX
5
7d2
100
AcDbEntity
8
1
100
AcDbVertex
100
AcDb2dVertex
62
5
10
163.750000
20
38.250000
0
VERTEX
5
7d3
100
AcDbEntity
8
1
100
AcDbVertex
100
AcDb2dVertex
62
5
10
164.687500
20
38.250000
0
VERTEX
5
7d4
100
AcDbEntity
8
1
100
AcDbVertex
100
AcDb2dVertex
62
5
10
165.312500
20
38.875000
0
VERTEX
5
7d5
100
AcDbEntity
8
1
100
AcDbVertex
100
AcDb2dVertex
62
5
10
165.937500
20
40.437500
0
SEQEND
5
7d6
100
AcDbEntity
8
1
0
LINE
5
7d7
100
AcDbEntity
8
1
100
AcDbLine
6
CONTINUOUS
62
5
10
100.000000
20
54.000000
11
100.000000
21
30.000000
0
LINE
5
7d8
100
AcDbEntity
8
1
100
AcDbLine
6
CONTINUOUS
62
5
10
64.687500
20
46.375000
11
64.687500
21
45.437500
0
POLYLINE
5
7d9
100
AcDbEntity
8
1
6
CONTINUOUS
62
5
100
AcDb2dPolyline
66
1
10
0.0
20
0.0
30
0.0
70
0
0
VERTEX
5
7da
100
AcDbEntity
8
1
100
AcDbVertex
100
AcDb2dVertex
62
5
10
60.937500
20
43.250000
0
VERTEX
5
7db
100
AcDbEntity
8
1
100
AcDbVertex
100
AcDb2dVertex
62
5
10
60.937500
20
45.437500
0
VERTEX
5
7dc
100
AcDbEntity
8
1
100
AcDbVertex
100
AcDb2dVertex
62
5
10
68.437500
20
45.437500
0
VERTEX
5
7dd
100
AcDbEntity
8
1
100
AcDbVertex
100
AcDb2dVertex
62
5
10
68.437500
20
43.250000
0
SEQEND
5
7de
100
AcDbEntity
8
1
0
LINE
5
7df
100
AcDbEntity
8
1
100
AcDbLine
6
CONTINUOUS
62
5
10
61.875000
20
43.562500
11
67.500000
21
43.562500
0
LINE
5
7e0
100
AcDbEntity
8
1
100
AcDbLine
6
CONTINUOUS
62
5
10
64.687500
20
43.562500
11
64.687500
21
38.250000
0
LINE
5
7e1
100
AcDbEntity
8
1
100
AcDbLine
6
CONTINUOUS
62
5
10
64.687500
20
41.062500
11
67.500000
21
41.062500
0
POLYLINE
5
7e2
100
AcDbEntity
8
1
6
CONTINUOUS
62
5
100
AcDb2dPolyline
66
1
10
0.0
20
0.0
30
0.0
70
0
0
VERTEX
5
7e3
100
AcDbEntity
8
1
100
AcDbVertex
100
AcDb2dVertex
62
5
10
62.500000
20
41.687500
0
VERTEX
5
7e4
100
AcDbEntity
8
1
100
AcDbVertex
100
AcDb2dVertex
62
5
10
62.187500
20
39.812500
0
VERTEX
5
7e5
100
AcDbEntity
8
1
100
AcDbVertex
100
AcDb2dVertex
62
5
10
61.562500
20
38.562500
0
VERTEX
5
7e6
100
AcDbEntity
8
1
100
AcDbVertex
100
AcDb2dVertex
62
5
10
60.625000
20
37.625000
0
SEQEND
5
7e7
100
AcDbEntity
8
1
0
POLYLINE
5
7e8
100
AcDbEntity
8
1
6
CONTINUOUS
62
5
100
AcDb2dPolyline
66
1
10
0.0
20
0.0
30
0.0
70
0
0
VERTEX
5
7e9
100
AcDbEntity
8
1
100
AcDbVertex
100
AcDb2dVertex
62
5
10
62.187500
20
39.812500
0
VERTEX
5
7ea
100
AcDbEntity
8
1
100
AcDbVertex
100
AcDb2dVertex
62
5
10
64.687500
20
38.250000
0
VERTEX
5
7eb
100
AcDbEntity
8
1
100
AcDbVertex
100
AcDb2dVertex
62
5
10
65.937500
20
37.937500
0
VERTEX
5
7ec
100
AcDbEntity
8
1
100
AcDbVertex
100
AcDb2dVertex
62
5
10
69.062500
20
37.625000
0
SEQEND
5
7ed
100
AcDbEntity
8
1
0
LINE
5
7ee
100
AcDbEntity
8
1
100
AcDbLine
6
CONTINUOUS
62
5
10
80.625000
20
44.187500
11
83.750000
21
44.187500
0
LINE
5
7ef
100
AcDbEntity
8
1
100
AcDbLine
6
CONTINUOUS
62
5
10
82.500000
20
46.375000
11
82.500000
21
37.625000
0
POLYLINE
5
7f0
100
AcDbEntity
8
1
6
CONTINUOUS
62
5
100
AcDb2dPolyline
66
1
10
0.0
20
0.0
30
0.0
70
0
0
VERTEX
5
7f1
100
AcDbEntity
8
1
100
AcDbVertex
100
AcDb2dVertex
62
5
10
82.500000
20
44.187500
0
VERTEX
5
7f2
100
AcDbEntity
8
1
100
AcDbVertex
100
AcDb2dVertex
62
5
10
81.562500
20
42.000000
0
VERTEX
5
7f3
100
AcDbEntity
8
1
100
AcDbVertex
100
AcDb2dVertex
62
5
10
80.625000
20
40.750000
0
SEQEND
5
7f4
100
AcDbEntity
8
1
0
LINE
5
7f5
100
AcDbEntity
8
1
100
AcDbLine
6
CONTINUOUS
62
5
10
82.500000
20
43.250000
11
83.437500
21
42.000000
0
POLYLINE
5
7f6
100
AcDbEntity
8
1
6
CONTINUOUS
62
5
100
AcDb2dPolyline
66
1
10
0.0
20
0.0
30
0.0
70
0
0
VERTEX
5
7f7
100
AcDbEntity
8
1
100
AcDbVertex
100
AcDb2dVertex
62
5
10
85.937500
20
46.375000
0
VERTEX
5
7f8
100
AcDbEntity
8
1
100
AcDbVertex
100
AcDb2dVertex
62
5
10
85.312500
20
45.125000
0
VERTEX
5
7f9
100
AcDbEntity
8
1
100
AcDbVertex
100
AcDb2dVertex
62
5
10
83.750000
20
43.250000
0
SEQEND
5
7fa
100
AcDbEntity
8
1
0
POLYLINE
5
7fb
100
AcDbEntity
8
1
6
CONTINUOUS
62
5
100
AcDb2dPolyline
66
1
10
0.0
20
0.0
30
0.0
70
0
0
VERTEX
5
7fc
100
AcDbEntity
8
1
100
AcDbVertex
100
AcDb2dVertex
62
5
10
85.312500
20
45.125000
0
VERTEX
5
7fd
100
AcDbEntity
8
1
100
AcDbVertex
100
AcDb2dVertex
62
5
10
88.437500
20
45.125000
0
VERTEX
5
7fe
100
AcDbEntity
8
1
100
AcDbVertex
100
AcDb2dVertex
62
5
10
87.500000
20
43.562500
0
VERTEX
5
7ff
100
AcDbEntity
8
1
100
AcDbVertex
100
AcDb2dVertex
62
5
10
85.937500
20
42.000000
0
VERTEX
5
800
100
AcDbEntity
8
1
100
AcDbVertex
100
AcDb2dVertex
62
5
10
83.750000
20
40.750000
0
SEQEND
5
801
100
AcDbEntity
8
1
0
POLYLINE
5
802
100
AcDbEntity
8
1
6
CONTINUOUS
62
5
100
AcDb2dPolyline
66
1
10
0.0
20
0.0
30
0.0
70
0
0
VERTEX
5
803
100
AcDbEntity
8
1
100
AcDbVertex
100
AcDb2dVertex
62
5
10
85.312500
20
45.125000
0
VERTEX
5
804
100
AcDbEntity
8
1
100
AcDbVertex
100
AcDb2dVertex
62
5
10
85.937500
20
43.562500
0
VERTEX
5
805
100
AcDbEntity
8
1
100
AcDbVertex
100
AcDb2dVertex
62
5
10
87.187500
20
42.000000
0
VERTEX
5
806
100
AcDbEntity
8
1
100
AcDbVertex
100
AcDb2dVertex
62
5
10
88.125000
20
41.375000
0
VERTEX
5
807
100
AcDbEntity
8
1
100
AcDbVertex
100
AcDb2dVertex
62
5
10
89.375000
20
40.750000
0
SEQEND
5
808
100
AcDbEntity
8
1
0
POLYLINE
5
809
100
AcDbEntity
8
1
6
CONTINUOUS
62
5
100
AcDb2dPolyline
66
1
10
0.0
20
0.0
30
0.0
70
1
0
VERTEX
5
80a
100
AcDbEntity
8
1
100
AcDbVertex
100
AcDb2dVertex
62
5
10
85.000000
20
40.750000
0
VERTEX
5
80b
100
AcDbEntity
8
1
100
AcDbVertex
100
AcDb2dVertex
62
5
10
85.000000
20
37.937500
0
VERTEX
5
80c
100
AcDbEntity
8
1
100
AcDbVertex
100
AcDb2dVertex
62
5
10
88.437500
20
37.937500
0
VERTEX
5
80d
100
AcDbEntity
8
1
100
AcDbVertex
100
AcDb2dVertex
62
5
10
88.437500
20
40.750000
0
VERTEX
5
80e
100
AcDbEntity
8
1
100
AcDbVertex
100
AcDb2dVertex
62
5
10
85.000000
20
40.750000
0
SEQEND
5
80f
100
AcDbEntity
8
1
0
POLYLINE
5
810
100
AcDbEntity
8
1
6
CONTINUOUS
62
5
100
AcDb2dPolyline
66
1
10
0.0
20
0.0
30
0.0
70
1
0
VERTEX
5
811
100
AcDbEntity
8
1
100
AcDbVertex
100
AcDb2dVertex
62
5
10
290.000000
20
30.000000
0
VERTEX
5
812
100
AcDbEntity
8
1
100
AcDbVertex
100
AcDb2dVertex
62
5
10
290.000000
20
54.000000
0
VERTEX
5
813
100
AcDbEntity
8
1
100
AcDbVertex
100
AcDb2dVertex
62
5
10
50.000000
20
54.000000
0
VERTEX
5
814
100
AcDbEntity
8
1
100
AcDbVertex
100
AcDb2dVertex
62
5
10
50.000000
20
30.000000
0
VERTEX
5
815
100
AcDbEntity
8
1
100
AcDbVertex
100
AcDb2dVertex
62
5
10
290.000000
20
30.000000
0
SEQEND
5
816
100
AcDbEntity
8
1
0
LINE
5
817
100
AcDbEntity
8
1
100
AcDbLine
6
CONTINUOUS
62
5
10
234.199997
20
164.429861
11
234.199997
21
243.000000
0
POLYLINE
5
818
100
AcDbEntity
8
1
6
CONTINUOUS
62
5
100
AcDb2dPolyline
66
1
10
0.0
20
0.0
30
0.0
70
0
0
VERTEX
5
819
100
AcDbEntity
8
1
100
AcDbVertex
100
AcDb2dVertex
62
5
10
265.449997
20
241.000000
0
VERTEX
5
81a
100
AcDbEntity
8
1
100
AcDbVertex
100
AcDb2dVertex
62
5
10
234.199997
20
241.000000
0
VERTEX
5
81b
100
AcDbEntity
8
1
100
AcDbVertex
100
AcDb2dVertex
62
5
10
240.199997
20
242.000000
0
VERTEX
5
81c
100
AcDbEntity
8
1
100
AcDbVertex
100
AcDb2dVertex
62
5
10
240.199997
20
240.000000
0
VERTEX
5
81d
100
AcDbEntity
8
1
100
AcDbVertex
100
AcDb2dVertex
62
5
10
234.199997
20
241.000000
0
VERTEX
5
81e
100
AcDbEntity
8
1
100
AcDbVertex
100
AcDb2dVertex
62
5
10
240.199997
20
241.500000
0
VERTEX
5
81f
100
AcDbEntity
8
1
100
AcDbVertex
100
AcDb2dVertex
62
5
10
240.199997
20
240.500000
0
VERTEX
5
820
100
AcDbEntity
8
1
100
AcDbVertex
100
AcDb2dVertex
62
5
10
234.199997
20
241.000000
0
SEQEND
5
821
100
AcDbEntity
8
1
0
LINE
5
822
100
AcDbEntity
8
1
100
AcDbLine
6
CONTINUOUS
62
5
10
234.199997
20
241.000000
11
217.350007
21
241.000000
0
LINE
5
823
100
AcDbEntity
8
1
100
AcDbLine
6
CONTINUOUS
62
5
10
214.350007
20
241.000000
11
217.350007
21
241.000000
0
LINE
5
824
100
AcDbEntity
8
1
100
AcDbLine
6
CONTINUOUS
62
5
10
107.800002
20
216.000000
11
78.800003
21
216.000000
0
LINE
5
825
100
AcDbEntity
8
1
100
AcDbLine
6
CONTINUOUS
62
5
10
107.800002
20
104.000034
11
78.800003
21
104.000034
0
POLYLINE
5
826
100
AcDbEntity
8
1
6
CONTINUOUS
62
5
100
AcDb2dPolyline
66
1
10
0.0
20
0.0
30
0.0
70
0
0
VERTEX
5
827
100
AcDbEntity
8
1
100
AcDbVertex
100
AcDb2dVertex
62
5
10
80.800003
20
160.000017
0
VERTEX
5
828
100
AcDbEntity
8
1
100
AcDbVertex
100
AcDb2dVertex
62
5
10
80.800003
20
104.000034
0
VERTEX
5
829
100
AcDbEntity
8
1
100
AcDbVertex
100
AcDb2dVertex
62
5
10
79.800003
20
110.000034
0
VERTEX
5
82a
100
AcDbEntity
8
1
100
AcDbVertex
100
AcDb2dVertex
62
5
10
81.800003
20
110.000034
0
VERTEX
5
82b
100
AcDbEntity
8
1
100
AcDbVertex
100
AcDb2dVertex
62
5
10
80.800003
20
104.000034
0
VERTEX
5
82c
100
AcDbEntity
8
1
100
AcDbVertex
100
AcDb2dVertex
62
5
10
80.300003
20
110.000034
0
VERTEX
5
82d
100
AcDbEntity
8
1
100
AcDbVertex
100
AcDb2dVertex
62
5
10
81.300003
20
110.000034
0
VERTEX
5
82e
100
AcDbEntity
8
1
100
AcDbVertex
100
AcDb2dVertex
62
5
10
80.800003
20
104.000034
0
SEQEND
5
82f
100
AcDbEntity
8
1
0
POLYLINE
5
830
100
AcDbEntity
8
1
6
CONTINUOUS
62
5
100
AcDb2dPolyline
66
1
10
0.0
20
0.0
30
0.0
70
0
0
VERTEX
5
831
100
AcDbEntity
8
1
100
AcDbVertex
100
AcDb2dVertex
62
5
10
80.800003
20
160.000017
0
VERTEX
5
832
100
AcDbEntity
8
1
100
AcDbVertex
100
AcDb2dVertex
62
5
10
80.800003
20
216.000000
0
VERTEX
5
833
100
AcDbEntity
8
1
100
AcDbVertex
100
AcDb2dVertex
62
5
10
81.800003
20
210.000000
0
VERTEX
5
834
100
AcDbEntity
8
1
100
AcDbVertex
100
AcDb2dVertex
62
5
10
79.800003
20
210.000000
0
VERTEX
5
835
100
AcDbEntity
8
1
100
AcDbVertex
100
AcDb2dVertex
62
5
10
80.800003
20
216.000000
0
VERTEX
5
836
100
AcDbEntity
8
1
100
AcDbVertex
100
AcDb2dVertex
62
5
10
81.300003
20
210.000000
0
VERTEX
5
837
100
AcDbEntity
8
1
100
AcDbVertex
100
AcDb2dVertex
62
5
10
80.300003
20
210.000000
0
VERTEX
5
838
100
AcDbEntity
8
1
100
AcDbVertex
100
AcDb2dVertex
62
5
10
80.800003
20
216.000000
0
SEQEND
5
839
100
AcDbEntity
8
1
0
ARC
5
83a
100
AcDbEntity
8
1
100
AcDbCircle
6
CONTINUOUS
62
5
10
229.999997
20
180.043380
40
0.500000
100
AcDbArc
50
-0.000000
51
84.805240
0
LINE
5
83b
100
AcDbEntity
8
1
100
AcDbLine
6
CONTINUOUS
62
5
10
230.045267
20
180.541326
11
224.999997
21
181.000017
0
POLYLINE
5
83c
100
AcDbEntity
8
1
6
CONTINUOUS
62
5
100
AcDb2dPolyline
66
1
10
0.0
20
0.0
30
0.0
70
0
0
VERTEX
5
83d
100
AcDbEntity
8
1
100
AcDbVertex
100
AcDb2dVertex
62
5
10
224.850007
20
178.000017
0
VERTEX
5
83e
100
AcDbEntity
8
1
100
AcDbVertex
100
AcDb2dVertex
62
5
10
224.999979
20
178.000017
0
VERTEX
5
83f
100
AcDbEntity
8
1
100
AcDbVertex
100
AcDb2dVertex
62
5
10
230.045261
20
178.458648
0
SEQEND
5
840
100
AcDbEntity
8
1
0
ARC
5
841
100
AcDbEntity
8
1
100
AcDbCircle
6
CONTINUOUS
62
5
10
229.999997
20
178.956595
40
0.500000
100
AcDbArc
50
-84.805916
51
-0.000000
0
LINE
5
842
100
AcDbEntity
8
1
100
AcDbLine
6
CONTINUOUS
62
5
10
230.499997
20
178.956595
11
230.499997
21
180.043380
0
POLYLINE
5
843
100
AcDbEntity
8
1
6
CONTINUOUS
62
5
100
AcDb2dPolyline
66
1
10
0.0
20
0.0
30
0.0
70
0
0
VERTEX
5
844
100
AcDbEntity
8
1
100
AcDbVertex
100
AcDb2dVertex
62
5
10
224.850007
20
183.199996
0
VERTEX
5
845
100
AcDbEntity
8
1
100
AcDbVertex
100
AcDb2dVertex
62
5
10
224.999997
20
182.900017
0
VERTEX
5
846
100
AcDbEntity
8
1
100
AcDbVertex
100
AcDb2dVertex
62
5
10
224.999997
20
178.000018
0
SEQEND
5
847
100
AcDbEntity
8
1
0
ARC
5
848
100
AcDbEntity
8
1
100
AcDbCircle
6
CONTINUOUS
62
5
10
216.149994
20
178.249993
40
0.500000
100
AcDbArc
50
179.999998
51
-89.999999
0
LINE
5
849
100
AcDbEntity
8
1
100
AcDbLine
6
CONTINUOUS
62
5
10
215.649994
20
178.249993
11
215.649994
21
187.749993
0
ARC
5
84a
100
AcDbEntity
8
1
100
AcDbCircle
6
CONTINUOUS
62
5
10
216.149994
20
187.749993
40
0.500000
100
AcDbArc
50
89.999999
51
179.999998
0
LINE
5
84b
100
AcDbEntity
8
1
100
AcDbLine
6
CONTINUOUS
62
5
10
216.149994
20
188.249993
11
218.840007
21
188.249993
0
ARC
5
84c
100
AcDbEntity
8
1
100
AcDbCircle
6
CONTINUOUS
62
5
10
218.840007
20
187.749993
40
0.500000
100
AcDbArc
50
0.000000
51
89.999999
0
LINE
5
84d
100
AcDbEntity
8
1
100
AcDbLine
6
CONTINUOUS
62
5
10
219.340007
20
187.749993
11
219.340007
21
178.249993
0
ARC
5
84e
100
AcDbEntity
8
1
100
AcDbCircle
6
CONTINUOUS
62
5
10
218.840007
20
178.249993
40
0.500000
100
AcDbArc
50
-89.999999
51
0.000000
0
LINE
5
84f
100
AcDbEntity
8
1
100
AcDbLine
6
CONTINUOUS
62
5
10
218.840007
20
177.749993
11
216.149994
21
177.749993
0
ARC
5
850
100
AcDbEntity
8
1
100
AcDbCircle
6
CONTINUOUS
62
5
10
232.499997
20
176.500017
40
0.500000
100
AcDbArc
50
179.999998
51
-89.999999
0
LINE
5
851
100
AcDbEntity
8
1
100
AcDbLine
6
CONTINUOUS
62
5
10
232.499997
20
176.000017
11
232.999997
21
176.000017
0
LINE
5
852
100
AcDbEntity
8
1
100
AcDbLine
6
CONTINUOUS
62
5
10
232.999997
20
180.000017
11
232.499997
21
180.000017
0
ARC
5
853
100
AcDbEntity
8
1
100
AcDbCircle
6
CONTINUOUS
62
5
10
232.499997
20
179.500017
40
0.500000
100
AcDbArc
50
89.999999
51
179.999998
0
LINE
5
854
100
AcDbEntity
8
1
100
AcDbLine
6
CONTINUOUS
62
5
10
231.999997
20
179.500017
11
231.999997
21
176.500017
0
LINE
5
855
100
AcDbEntity
8
1
100
AcDbLine
6
CONTINUOUS
62
5
10
220.999998
20
174.142926
11
220.999998
21
175.057066
0
LINE
5
856
100
AcDbEntity
8
1
100
AcDbLine
6
CONTINUOUS
62
5
10
220.999998
20
190.942921
11
220.999998
21
191.857061
0
ARC
5
857
100
AcDbEntity
8
1
100
AcDbCircle
6
CONTINUOUS
62
5
10
231.999997
20
192.724704
40
1.000000
100
AcDbArc
50
0.000000
51
88.567903
0
LINE
5
858
100
AcDbEntity
8
1
100
AcDbLine
6
CONTINUOUS
62
5
10
232.999997
20
192.724704
11
232.999997
21
168.000017
0
LINE
5
859
100
AcDbEntity
8
1
100
AcDbLine
6
CONTINUOUS
62
5
10
224.850007
20
193.903767
11
232.024989
21
193.724392
0
ARC
5
85a
100
AcDbEntity
8
1
100
AcDbCircle
6
CONTINUOUS
62
5
10
213.850005
20
192.499990
40
0.500000
100
AcDbArc
50
179.999998
51
-89.999999
0
POLYLINE
5
85b
100
AcDbEntity
8
1
6
CONTINUOUS
62
5
100
AcDb2dPolyline
66
1
10
0.0
20
0.0
30
0.0
70
0
0
VERTEX
5
85c
100
AcDbEntity
8
1
100
AcDbVertex
100
AcDb2dVertex
62
5
10
213.850005
20
191.999990
0
VERTEX
5
85d
100
AcDbEntity
8
1
100
AcDbVertex
100
AcDb2dVertex
62
5
10
222.149997
20
191.999990
0
VERTEX
5
85e
100
AcDbEntity
8
1
100
AcDbVertex
100
AcDb2dVertex
62
5
10
222.149995
20
173.999996
0
VERTEX
5
85f
100
AcDbEntity
8
1
100
AcDbVertex
100
AcDb2dVertex
62
5
10
213.850005
20
173.999996
0
SEQEND
5
860
100
AcDbEntity
8
1
0
ARC
5
861
100
AcDbEntity
8
1
100
AcDbCircle
6
CONTINUOUS
62
5
10
213.850005
20
173.499996
40
0.500000
100
AcDbArc
50
89.999999
51
-179.999998
0
ARC
5
862
100
AcDbEntity
8
1
100
AcDbCircle
6
CONTINUOUS
62
5
10
224.350007
20
195.200000
40
0.500000
100
AcDbArc
50
0.000000
51
89.999999
0
LINE
5
863
100
AcDbEntity
8
1
100
AcDbLine
6
CONTINUOUS
62
5
10
224.850007
20
195.200000
11
224.850007
21
124.800000
0
ARC
5
864
100
AcDbEntity
8
1
100
AcDbCircle
6
CONTINUOUS
62
5
10
224.350007
20
124.800000
40
0.500000
100
AcDbArc
50
-89.999999
51
0.000000
0
LINE
5
865
100
AcDbEntity
8
1
100
AcDbLine
6
CONTINUOUS
62
5
10
224.350007
20
124.300000
11
217.350007
21
124.300000
0
LINE
5
866
100
AcDbEntity
8
1
100
AcDbLine
6
CONTINUOUS
62
5
10
217.350007
20
195.700000
11
224.350007
21
195.700000
0
ARC
5
867
100
AcDbEntity
8
1
100
AcDbCircle
6
CONTINUOUS
62
5
10
216.350004
20
215.499983
40
0.500000
100
AcDbArc
50
90.000012
51
161.565001
0
LINE
5
868
100
AcDbEntity
8
1
100
AcDbLine
6
CONTINUOUS
62
5
10
215.875663
20
215.658097
11
214.789588
21
213.093454
0
ARC
5
869
100
AcDbEntity
8
1
100
AcDbCircle
6
CONTINUOUS
62
5
10
215.250005
20
212.898477
40
0.500000
100
AcDbArc
50
157.048315
51
-179.999998
0
POLYLINE
5
86a
100
AcDbEntity
8
1
6
CONTINUOUS
62
5
100
AcDb2dPolyline
66
1
10
0.0
20
0.0
30
0.0
70
0
0
VERTEX
5
86b
100
AcDbEntity
8
1
100
AcDbVertex
100
AcDb2dVertex
62
5
10
214.750005
20
212.898477
0
VERTEX
5
86c
100
AcDbEntity
8
1
100
AcDbVertex
100
AcDb2dVertex
62
5
10
214.750005
20
206.149986
0
VERTEX
5
86d
100
AcDbEntity
8
1
100
AcDbVertex
100
AcDb2dVertex
62
5
10
213.850005
20
206.149986
0
SEQEND
5
86e
100
AcDbEntity
8
1
0
ARC
5
86f
100
AcDbEntity
8
1
100
AcDbCircle
6
CONTINUOUS
62
5
10
213.850005
20
205.649986
40
0.500000
100
AcDbArc
50
89.999999
51
-179.999998
0
LINE
5
870
100
AcDbEntity
8
1
100
AcDbLine
6
CONTINUOUS
62
5
10
213.350005
20
205.649986
11
213.350005
21
114.350014
0
ARC
5
871
100
AcDbEntity
8
1
100
AcDbCircle
6
CONTINUOUS
62
5
10
213.850005
20
114.350014
40
0.500000
100
AcDbArc
50
-179.999998
51
-89.999999
0
POLYLINE
5
872
100
AcDbEntity
8
1
6
CONTINUOUS
62
5
100
AcDb2dPolyline
66
1
10
0.0
20
0.0
30
0.0
70
0
0
VERTEX
5
873
100
AcDbEntity
8
1
100
AcDbVertex
100
AcDb2dVertex
62
5
10
213.850005
20
113.850014
0
VERTEX
5
874
100
AcDbEntity
8
1
100
AcDbVertex
100
AcDb2dVertex
62
5
10
214.750005
20
113.850014
0
VERTEX
5
875
100
AcDbEntity
8
1
100
AcDbVertex
100
AcDb2dVertex
62
5
10
214.750005
20
107.101523
0
SEQEND
5
876
100
AcDbEntity
8
1
0
ARC
5
877
100
AcDbEntity
8
1
100
AcDbCircle
6
CONTINUOUS
62
5
10
215.250005
20
107.101523
40
0.500000
100
AcDbArc
50
-179.999998
51
-157.048315
0
LINE
5
878
100
AcDbEntity
8
1
100
AcDbLine
6
CONTINUOUS
62
5
10
214.789588
20
106.906546
11
215.875663
21
104.341903
0
ARC
5
879
100
AcDbEntity
8
1
100
AcDbCircle
6
CONTINUOUS
62
5
10
216.350004
20
104.500017
40
0.500000
100
AcDbArc
50
-161.565013
51
-89.999987
0
POLYLINE
5
87a
100
AcDbEntity
8
1
6
CONTINUOUS
62
5
100
AcDb2dPolyline
66
1
10
0.0
20
0.0
30
0.0
70
0
0
VERTEX
5
87b
100
AcDbEntity
8
1
100
AcDbVertex
100
AcDb2dVertex
62
5
10
216.350004
20
104.000017
0
VERTEX
5
87c
100
AcDbEntity
8
1
100
AcDbVertex
100
AcDb2dVertex
62
5
10
217.350007
20
104.000017
0
VERTEX
5
87d
100
AcDbEntity
8
1
100
AcDbVertex
100
AcDb2dVertex
62
5
10
217.350007
20
126.800010
0
SEQEND
5
87e
100
AcDbEntity
8
1
0
POLYLINE
5
87f
100
AcDbEntity
8
1
6
CONTINUOUS
62
5
100
AcDb2dPolyline
66
1
10
0.0
20
0.0
30
0.0
70
0
0
VERTEX
5
880
100
AcDbEntity
8
1
100
AcDbVertex
100
AcDb2dVertex
62
5
10
217.350007
20
193.199990
0
VERTEX
5
881
100
AcDbEntity
8
1
100
AcDbVertex
100
AcDb2dVertex
62
5
10
217.350007
20
215.999983
0
VERTEX
5
882
100
AcDbEntity
8
1
100
AcDbVertex
100
AcDb2dVertex
62
5
10
216.350004
20
215.999983
0
SEQEND
5
883
100
AcDbEntity
8
1
0
ARC
5
884
100
AcDbEntity
8
1
100
AcDbCircle
6
CONTINUOUS
62
5
10
149.999982
20
187.750017
40
0.500000
100
AcDbArc
50
89.999999
51
179.999998
0
LINE
5
885
100
AcDbEntity
8
1
100
AcDbLine
6
CONTINUOUS
62
5
10
149.999982
20
188.250017
11
150.499982
21
188.250017
0
ARC
5
886
100
AcDbEntity
8
1
100
AcDbCircle
6
CONTINUOUS
62
5
10
150.499982
20
187.750017
40
0.500000
100
AcDbArc
50
-0.000000
51
89.999999
0
LINE
5
887
100
AcDbEntity
8
1
100
AcDbLine
6
CONTINUOUS
62
5
10
150.999982
20
187.750017
11
150.999982
21
178.250017
0
ARC
5
888
100
AcDbEntity
8
1
100
AcDbCircle
6
CONTINUOUS
62
5
10
150.499982
20
178.250017
40
0.500000
100
AcDbArc
50
-89.999999
51
-0.000000
0
LINE
5
889
100
AcDbEntity
8
1
100
AcDbLine
6
CONTINUOUS
62
5
10
150.499982
20
177.750017
11
149.999982
21
177.750017
0
ARC
5
88a
100
AcDbEntity
8
1
100
AcDbCircle
6
CONTINUOUS
62
5
10
149.999982
20
178.250017
40
0.500000
100
AcDbArc
50
179.999998
51
-89.999999
0
ARC
5
88b
100
AcDbEntity
8
1
100
AcDbCircle
6
CONTINUOUS
62
5
10
150.251305
20
178.250380
40
0.500364
100
AcDbArc
50
-179.875091
51
-0.041624
0
LINE
5
88c
100
AcDbEntity
8
1
100
AcDbLine
6
CONTINUOUS
62
5
10
150.751669
20
178.250017
11
150.751669
21
187.750017
0
ARC
5
88d
100
AcDbEntity
8
1
100
AcDbCircle
6
CONTINUOUS
62
5
10
150.251305
20
187.749653
40
0.500364
100
AcDbArc
50
0.041625
51
179.875091
0
LINE
5
88e
100
AcDbEntity
8
1
100
AcDbLine
6
CONTINUOUS
62
5
10
149.750943
20
187.750744
11
149.750943
21
178.249289
0
LINE
5
88f
100
AcDbEntity
8
1
100
AcDbLine
6
CONTINUOUS
62
5
10
134.849997
20
180.800000
11
135.149997
21
180.800000
0
LINE
5
890
100
AcDbEntity
8
1
100
AcDbLine
6
CONTINUOUS
62
5
10
134.849993
20
179.200000
11
135.149997
21
179.200000
0
LINE
5
891
100
AcDbEntity
8
1
100
AcDbLine
6
CONTINUOUS
62
5
10
134.849997
20
180.800000
11
135.149997
21
180.800000
0
LINE
5
892
100
AcDbEntity
8
1
100
AcDbLine
6
CONTINUOUS
62
5
10
134.849993
20
179.200000
11
135.149997
21
179.200000
0
LINE
5
893
100
AcDbEntity
8
1
100
AcDbLine
6
CONTINUOUS
62
5
10
121.849997
20
180.800000
11
122.149997
21
180.800000
0
LINE
5
894
100
AcDbEntity
8
1
100
AcDbLine
6
CONTINUOUS
62
5
10
121.849997
20
179.200000
11
122.149997
21
179.200000
0
LINE
5
895
100
AcDbEntity
8
1
100
AcDbLine
6
CONTINUOUS
62
5
10
121.849997
20
180.800000
11
122.149997
21
180.800000
0
LINE
5
896
100
AcDbEntity
8
1
100
AcDbLine
6
CONTINUOUS
62
5
10
121.849997
20
179.200000
11
122.149997
21
179.200000
0
ARC
5
897
100
AcDbEntity
8
1
100
AcDbCircle
6
CONTINUOUS
62
5
10
151.199982
20
190.300008
40
0.500000
100
AcDbArc
50
-0.000000
51
89.999999
0
ARC
5
898
100
AcDbEntity
8
1
100
AcDbCircle
6
CONTINUOUS
62
5
10
151.199982
20
175.700012
40
0.500000
100
AcDbArc
50
-89.999999
51
-0.000000
0
LINE
5
899
100
AcDbEntity
8
1
100
AcDbLine
6
CONTINUOUS
62
5
10
151.199982
20
175.200012
11
150.589897
21
175.200012
0
LINE
5
89a
100
AcDbEntity
8
1
100
AcDbLine
6
CONTINUOUS
62
5
10
149.499983
20
177.700000
11
149.499983
21
188.400000
0
LINE
5
89b
100
AcDbEntity
8
1
100
AcDbLine
6
CONTINUOUS
62
5
10
150.439893
20
190.800008
11
151.199982
21
190.800008
0
ARC
5
89c
100
AcDbEntity
8
1
100
AcDbCircle
6
CONTINUOUS
62
5
10
151.199982
20
192.500007
40
0.500000
100
AcDbArc
50
-89.999999
51
0.000000
0
POLYLINE
5
89d
100
AcDbEntity
8
1
6
CONTINUOUS
62
5
100
AcDb2dPolyline
66
1
10
0.0
20
0.0
30
0.0
70
0
0
VERTEX
5
89e
100
AcDbEntity
8
1
100
AcDbVertex
100
AcDb2dVertex
62
5
10
151.199982
20
192.000007
0
VERTEX
5
89f
100
AcDbEntity
8
1
100
AcDbVertex
100
AcDb2dVertex
62
5
10
148.499983
20
192.000007
0
VERTEX
5
8a0
100
AcDbEntity
8
1
100
AcDbVertex
100
AcDb2dVertex
62
5
10
148.499983
20
174.000013
0
VERTEX
5
8a1
100
AcDbEntity
8
1
100
AcDbVertex
100
AcDb2dVertex
62
5
10
151.199982
20
174.000013
0
SEQEND
5
8a2
100
AcDbEntity
8
1
0
ARC
5
8a3
100
AcDbEntity
8
1
100
AcDbCircle
6
CONTINUOUS
62
5
10
151.199982
20
173.500013
40
0.500000
100
AcDbArc
50
-0.000000
51
89.999999
0
POLYLINE
5
8a4
100
AcDbEntity
8
1
6
CONTINUOUS
62
5
100
AcDb2dPolyline
66
1
10
0.0
20
0.0
30
0.0
70
0
0
VERTEX
5
8a5
100
AcDbEntity
8
1
100
AcDbVertex
100
AcDb2dVertex
62
5
10
144.499997
20
175.200000
0
VERTEX
5
8a6
100
AcDbEntity
8
1
100
AcDbVertex
100
AcDb2dVertex
62
5
10
143.499997
20
175.200000
0
VERTEX
5
8a7
100
AcDbEntity
8
1
100
AcDbVertex
100
AcDb2dVertex
62
5
10
143.499997
20
183.600000
0
VERTEX
5
8a8
100
AcDbEntity
8
1
100
AcDbVertex
100
AcDb2dVertex
62
5
10
144.299997
20
183.600000
0
VERTEX
5
8a9
100
AcDbEntity
8
1
100
AcDbVertex
100
AcDb2dVertex
62
5
10
144.299997
20
175.200000
0
SEQEND
5
8aa
100
AcDbEntity
8
1
0
ARC
5
8ab
100
AcDbEntity
8
1
100
AcDbCircle
6
CONTINUOUS
62
5
10
134.249997
20
177.500000
40
0.700000
100
AcDbArc
50
-135.584690
51
-89.999999
0
POLYLINE
5
8ac
100
AcDbEntity
8
1
6
CONTINUOUS
62
5
100
AcDb2dPolyline
66
1
10
0.0
20
0.0
30
0.0
70
0
0
VERTEX
5
8ad
100
AcDbEntity
8
1
100
AcDbVertex
100
AcDb2dVertex
62
5
10
134.249997
20
176.800000
0
VERTEX
5
8ae
100
AcDbEntity
8
1
100
AcDbVertex
100
AcDb2dVertex
62
5
10
134.849997
20
176.800000
0
VERTEX
5
8af
100
AcDbEntity
8
1
100
AcDbVertex
100
AcDb2dVertex
62
5
10
134.849997
20
183.200000
0
VERTEX
5
8b0
100
AcDbEntity
8
1
100
AcDbVertex
100
AcDb2dVertex
62
5
10
134.249997
20
183.200000
0
SEQEND
5
8b1
100
AcDbEntity
8
1
0
ARC
5
8b2
100
AcDbEntity
8
1
100
AcDbCircle
6
CONTINUOUS
62
5
10
134.249997
20
182.500000
40
0.700000
100
AcDbArc
50
89.999999
51
135.584690
0
ARC
5
8b3
100
AcDbEntity
8
1
100
AcDbCircle
6
CONTINUOUS
62
5
10
134.249997
20
177.500000
40
0.700000
100
AcDbArc
50
-135.584690
51
-89.999999
0
POLYLINE
5
8b4
100
AcDbEntity
8
1
6
CONTINUOUS
62
5
100
AcDb2dPolyline
66
1
10
0.0
20
0.0
30
0.0
70
0
0
VERTEX
5
8b5
100
AcDbEntity
8
1
100
AcDbVertex
100
AcDb2dVertex
62
5
10
134.249997
20
176.800000
0
VERTEX
5
8b6
100
AcDbEntity
8
1
100
AcDbVertex
100
AcDb2dVertex
62
5
10
134.849997
20
176.800000
0
VERTEX
5
8b7
100
AcDbEntity
8
1
100
AcDbVertex
100
AcDb2dVertex
62
5
10
134.849997
20
183.200000
0
VERTEX
5
8b8
100
AcDbEntity
8
1
100
AcDbVertex
100
AcDb2dVertex
62
5
10
134.249997
20
183.200000
0
SEQEND
5
8b9
100
AcDbEntity
8
1
0
ARC
5
8ba
100
AcDbEntity
8
1
100
AcDbCircle
6
CONTINUOUS
62
5
10
134.249997
20
182.500000
40
0.700000
100
AcDbArc
50
89.999999
51
135.584690
0
ARC
5
8bb
100
AcDbEntity
8
1
100
AcDbCircle
6
CONTINUOUS
62
5
10
135.649997
20
182.500000
40
0.700000
100
AcDbArc
50
64.623066
51
89.999999
0
POLYLINE
5
8bc
100
AcDbEntity
8
1
6
CONTINUOUS
62
5
100
AcDb2dPolyline
66
1
10
0.0
20
0.0
30
0.0
70
0
0
VERTEX
5
8bd
100
AcDbEntity
8
1
100
AcDbVertex
100
AcDb2dVertex
62
5
10
135.649997
20
183.200000
0
VERTEX
5
8be
100
AcDbEntity
8
1
100
AcDbVertex
100
AcDb2dVertex
62
5
10
135.149997
20
183.200000
0
VERTEX
5
8bf
100
AcDbEntity
8
1
100
AcDbVertex
100
AcDb2dVertex
62
5
10
135.149997
20
176.800000
0
VERTEX
5
8c0
100
AcDbEntity
8
1
100
AcDbVertex
100
AcDb2dVertex
62
5
10
135.649997
20
176.800000
0
SEQEND
5
8c1
100
AcDbEntity
8
1
0
ARC
5
8c2
100
AcDbEntity
8
1
100
AcDbCircle
6
CONTINUOUS
62
5
10
135.649997
20
177.500000
40
0.700000
100
AcDbArc
50
-89.999999
51
-64.623066
0
ARC
5
8c3
100
AcDbEntity
8
1
100
AcDbCircle
6
CONTINUOUS
62
5
10
135.649997
20
182.500000
40
0.700000
100
AcDbArc
50
64.623066
51
89.999999
0
POLYLINE
5
8c4
100
AcDbEntity
8
1
6
CONTINUOUS
62
5
100
AcDb2dPolyline
66
1
10
0.0
20
0.0
30
0.0
70
0
0
VERTEX
5
8c5
100
AcDbEntity
8
1
100
AcDbVertex
100
AcDb2dVertex
62
5
10
135.649997
20
183.200000
0
VERTEX
5
8c6
100
AcDbEntity
8
1
100
AcDbVertex
100
AcDb2dVertex
62
5
10
135.149997
20
183.200000
0
VERTEX
5
8c7
100
AcDbEntity
8
1
100
AcDbVertex
100
AcDb2dVertex
62
5
10
135.149997
20
176.800000
0
VERTEX
5
8c8
100
AcDbEntity
8
1
100
AcDbVertex
100
AcDb2dVertex
62
5
10
135.649997
20
176.800000
0
SEQEND
5
8c9
100
AcDbEntity
8
1
0
ARC
5
8ca
100
AcDbEntity
8
1
100
AcDbCircle
6
CONTINUOUS
62
5
10
135.649997
20
177.500000
40
0.700000
100
AcDbArc
50
-89.999999
51
-64.623066
0
POLYLINE
5
8cb
100
AcDbEntity
8
1
6
CONTINUOUS
62
5
100
AcDb2dPolyline
66
1
10
0.0
20
0.0
30
0.0
70
1
0
VERTEX
5
8cc
100
AcDbEntity
8
1
100
AcDbVertex
100
AcDb2dVertex
62
5
10
135.949997
20
183.500000
0
VERTEX
5
8cd
100
AcDbEntity
8
1
100
AcDbVertex
100
AcDb2dVertex
62
5
10
133.749997
20
183.500000
0
VERTEX
5
8ce
100
AcDbEntity
8
1
100
AcDbVertex
100
AcDb2dVertex
62
5
10
133.749997
20
176.500000
0
VERTEX
5
8cf
100
AcDbEntity
8
1
100
AcDbVertex
100
AcDb2dVertex
62
5
10
135.949997
20
176.500000
0
SEQEND
5
8d0
100
AcDbEntity
8
1
0
POLYLINE
5
8d1
100
AcDbEntity
8
1
6
CONTINUOUS
62
5
100
AcDb2dPolyline
66
1
10
0.0
20
0.0
30
0.0
70
1
0
VERTEX
5
8d2
100
AcDbEntity
8
1
100
AcDbVertex
100
AcDb2dVertex
62
5
10
135.949997
20
183.500000
0
VERTEX
5
8d3
100
AcDbEntity
8
1
100
AcDbVertex
100
AcDb2dVertex
62
5
10
133.749997
20
183.500000
0
VERTEX
5
8d4
100
AcDbEntity
8
1
100
AcDbVertex
100
AcDb2dVertex
62
5
10
133.749997
20
176.500000
0
VERTEX
5
8d5
100
AcDbEntity
8
1
100
AcDbVertex
100
AcDb2dVertex
62
5
10
135.949997
20
176.500000
0
SEQEND
5
8d6
100
AcDbEntity
8
1
0
ARC
5
8d7
100
AcDbEntity
8
1
100
AcDbCircle
6
CONTINUOUS
62
5
10
121.349997
20
177.500000
40
0.700000
100
AcDbArc
50
-115.376933
51
-89.999999
0
POLYLINE
5
8d8
100
AcDbEntity
8
1
6
CONTINUOUS
62
5
100
AcDb2dPolyline
66
1
10
0.0
20
0.0
30
0.0
70
0
0
VERTEX
5
8d9
100
AcDbEntity
8
1
100
AcDbVertex
100
AcDb2dVertex
62
5
10
121.349997
20
176.800000
0
VERTEX
5
8da
100
AcDbEntity
8
1
100
AcDbVertex
100
AcDb2dVertex
62
5
10
121.849997
20
176.800000
0
VERTEX
5
8db
100
AcDbEntity
8
1
100
AcDbVertex
100
AcDb2dVertex
62
5
10
121.849997
20
183.200000
0
VERTEX
5
8dc
100
AcDbEntity
8
1
100
AcDbVertex
100
AcDb2dVertex
62
5
10
121.349997
20
183.200000
0
SEQEND
5
8dd
100
AcDbEntity
8
1
0
ARC
5
8de
100
AcDbEntity
8
1
100
AcDbCircle
6
CONTINUOUS
62
5
10
121.349997
20
182.500000
40
0.700000
100
AcDbArc
50
89.999999
51
115.376933
0
ARC
5
8df
100
AcDbEntity
8
1
100
AcDbCircle
6
CONTINUOUS
62
5
10
121.349997
20
177.500000
40
0.700000
100
AcDbArc
50
-115.376933
51
-89.999999
0
POLYLINE
5
8e0
100
AcDbEntity
8
1
6
CONTINUOUS
62
5
100
AcDb2dPolyline
66
1
10
0.0
20
0.0
30
0.0
70
0
0
VERTEX
5
8e1
100
AcDbEntity
8
1
100
AcDbVertex
100
AcDb2dVertex
62
5
10
121.349997
20
176.800000
0
VERTEX
5
8e2
100
AcDbEntity
8
1
100
AcDbVertex
100
AcDb2dVertex
62
5
10
121.849997
20
176.800000
0
VERTEX
5
8e3
100
AcDbEntity
8
1
100
AcDbVertex
100
AcDb2dVertex
62
5
10
121.849997
20
183.200000
0
VERTEX
5
8e4
100
AcDbEntity
8
1
100
AcDbVertex
100
AcDb2dVertex
62
5
10
121.349997
20
183.200000
0
SEQEND
5
8e5
100
AcDbEntity
8
1
0
ARC
5
8e6
100
AcDbEntity
8
1
100
AcDbCircle
6
CONTINUOUS
62
5
10
121.349997
20
182.500000
40
0.700000
100
AcDbArc
50
89.999999
51
115.376933
0
ARC
5
8e7
100
AcDbEntity
8
1
100
AcDbCircle
6
CONTINUOUS
62
5
10
122.749997
20
182.500000
40
0.700000
100
AcDbArc
50
44.415309
51
89.999998
0
POLYLINE
5
8e8
100
AcDbEntity
8
1
6
CONTINUOUS
62
5
100
AcDb2dPolyline
66
1
10
0.0
20
0.0
30
0.0
70
0
0
VERTEX
5
8e9
100
AcDbEntity
8
1
100
AcDbVertex
100
AcDb2dVertex
62
5
10
122.749997
20
183.200000
0
VERTEX
5
8ea
100
AcDbEntity
8
1
100
AcDbVertex
100
AcDb2dVertex
62
5
10
122.149997
20
183.200000
0
VERTEX
5
8eb
100
AcDbEntity
8
1
100
AcDbVertex
100
AcDb2dVertex
62
5
10
122.149997
20
176.800000
0
VERTEX
5
8ec
100
AcDbEntity
8
1
100
AcDbVertex
100
AcDb2dVertex
62
5
10
122.749997
20
176.800000
0
SEQEND
5
8ed
100
AcDbEntity
8
1
0
ARC
5
8ee
100
AcDbEntity
8
1
100
AcDbCircle
6
CONTINUOUS
62
5
10
122.749997
20
177.500000
40
0.700000
100
AcDbArc
50
-89.999999
51
-44.415308
0
ARC
5
8ef
100
AcDbEntity
8
1
100
AcDbCircle
6
CONTINUOUS
62
5
10
122.749997
20
182.500000
40
0.700000
100
AcDbArc
50
44.415309
51
89.999998
0
POLYLINE
5
8f0
100
AcDbEntity
8
1
6
CONTINUOUS
62
5
100
AcDb2dPolyline
66
1
10
0.0
20
0.0
30
0.0
70
0
0
VERTEX
5
8f1
100
AcDbEntity
8
1
100
AcDbVertex
100
AcDb2dVertex
62
5
10
122.749997
20
183.200000
0
VERTEX
5
8f2
100
AcDbEntity
8
1
100
AcDbVertex
100
AcDb2dVertex
62
5
10
122.149997
20
183.200000
0
VERTEX
5
8f3
100
AcDbEntity
8
1
100
AcDbVertex
100
AcDb2dVertex
62
5
10
122.149997
20
176.800000
0
VERTEX
5
8f4
100
AcDbEntity
8
1
100
AcDbVertex
100
AcDb2dVertex
62
5
10
122.749997
20
176.800000
0
SEQEND
5
8f5
100
AcDbEntity
8
1
0
ARC
5
8f6
100
AcDbEntity
8
1
100
AcDbCircle
6
CONTINUOUS
62
5
10
122.749997
20
177.500000
40
0.700000
100
AcDbArc
50
-89.999999
51
-44.415308
0
POLYLINE
5
8f7
100
AcDbEntity
8
1
6
CONTINUOUS
62
5
100
AcDb2dPolyline
66
1
10
0.0
20
0.0
30
0.0
70
1
0
VERTEX
5
8f8
100
AcDbEntity
8
1
100
AcDbVertex
100
AcDb2dVertex
62
5
10
123.249997
20
184.250000
0
VERTEX
5
8f9
100
AcDbEntity
8
1
100
AcDbVertex
100
AcDb2dVertex
62
5
10
121.049997
20
184.250000
0
VERTEX
5
8fa
100
AcDbEntity
8
1
100
AcDbVertex
100
AcDb2dVertex
62
5
10
121.049997
20
175.750000
0
VERTEX
5
8fb
100
AcDbEntity
8
1
100
AcDbVertex
100
AcDb2dVertex
62
5
10
123.249997
20
175.750000
0
SEQEND
5
8fc
100
AcDbEntity
8
1
0
POLYLINE
5
8fd
100
AcDbEntity
8
1
6
CONTINUOUS
62
5
100
AcDb2dPolyline
66
1
10
0.0
20
0.0
30
0.0
70
1
0
VERTEX
5
8fe
100
AcDbEntity
8
1
100
AcDbVertex
100
AcDb2dVertex
62
5
10
123.249997
20
184.250000
0
VERTEX
5
8ff
100
AcDbEntity
8
1
100
AcDbVertex
100
AcDb2dVertex
62
5
10
121.049997
20
184.250000
0
VERTEX
5
900
100
AcDbEntity
8
1
100
AcDbVertex
100
AcDb2dVertex
62
5
10
121.049997
20
175.750000
0
VERTEX
5
901
100
AcDbEntity
8
1
100
AcDbVertex
100
AcDb2dVertex
62
5
10
123.249997
20
175.750000
0
SEQEND
5
902
100
AcDbEntity
8
1
0
ARC
5
903
100
AcDbEntity
8
1
100
AcDbCircle
6
CONTINUOUS
62
5
10
97.499997
20
180.000000
40
30.000000
100
AcDbArc
50
-11.940544
51
11.940544
0
ARC
5
904
100
AcDbEntity
8
1
100
AcDbCircle
6
CONTINUOUS
62
5
10
125.872519
20
186.000000
40
1.000000
100
AcDbArc
50
11.940544
51
89.999999
0
LINE
5
905
100
AcDbEntity
8
1
100
AcDbLine
6
CONTINUOUS
62
5
10
125.872519
20
187.000000
11
118.499997
21
187.000000
0
ARC
5
906
100
AcDbEntity
8
1
100
AcDbCircle
6
CONTINUOUS
62
5
10
118.499997
20
186.000000
40
1.000000
100
AcDbArc
50
89.999999
51
-179.999998
0
LINE
5
907
100
AcDbEntity
8
1
100
AcDbLine
6
CONTINUOUS
62
5
10
117.499997
20
186.000000
11
117.499997
21
174.000000
0
ARC
5
908
100
AcDbEntity
8
1
100
AcDbCircle
6
CONTINUOUS
62
5
10
118.499997
20
174.000000
40
1.000000
100
AcDbArc
50
179.999998
51
-89.999999
0
LINE
5
909
100
AcDbEntity
8
1
100
AcDbLine
6
CONTINUOUS
62
5
10
118.499997
20
173.000000
11
125.872519
21
173.000000
0
ARC
5
90a
100
AcDbEntity
8
1
100
AcDbCircle
6
CONTINUOUS
62
5
10
125.872519
20
174.000000
40
1.000000
100
AcDbArc
50
-89.999999
51
-11.940544
0
ARC
5
90b
100
AcDbEntity
8
1
100
AcDbCircle
6
CONTINUOUS
62
5
10
97.499997
20
180.000000
40
30.000000
100
AcDbArc
50
-11.940544
51
11.940544
0
ARC
5
90c
100
AcDbEntity
8
1
100
AcDbCircle
6
CONTINUOUS
62
5
10
125.872519
20
186.000000
40
1.000000
100
AcDbArc
50
11.940544
51
89.999999
0
LINE
5
90d
100
AcDbEntity
8
1
100
AcDbLine
6
CONTINUOUS
62
5
10
125.872519
20
187.000000
11
118.499997
21
187.000000
0
ARC
5
90e
100
AcDbEntity
8
1
100
AcDbCircle
6
CONTINUOUS
62
5
10
118.499997
20
186.000000
40
1.000000
100
AcDbArc
50
89.999999
51
-179.999998
0
LINE
5
90f
100
AcDbEntity
8
1
100
AcDbLine
6
CONTINUOUS
62
5
10
117.499997
20
186.000000
11
117.499997
21
174.000000
0
ARC
5
910
100
AcDbEntity
8
1
100
AcDbCircle
6
CONTINUOUS
62
5
10
118.499997
20
174.000000
40
1.000000
100
AcDbArc
50
179.999998
51
-89.999999
0
LINE
5
911
100
AcDbEntity
8
1
100
AcDbLine
6
CONTINUOUS
62
5
10
118.499997
20
173.000000
11
125.872519
21
173.000000
0
ARC
5
912
100
AcDbEntity
8
1
100
AcDbCircle
6
CONTINUOUS
62
5
10
125.872519
20
174.000000
40
1.000000
100
AcDbArc
50
-89.999999
51
-11.940544
0
ARC
5
913
100
AcDbEntity
8
1
100
AcDbCircle
6
CONTINUOUS
62
5
10
159.499997
20
180.000000
40
30.000000
100
AcDbArc
50
168.059455
51
-168.059455
0
ARC
5
914
100
AcDbEntity
8
1
100
AcDbCircle
6
CONTINUOUS
62
5
10
131.127475
20
186.000000
40
1.000000
100
AcDbArc
50
89.999999
51
168.059455
0
LINE
5
915
100
AcDbEntity
8
1
100
AcDbLine
6
CONTINUOUS
62
5
10
131.127475
20
187.000000
11
138.499997
21
187.000000
0
ARC
5
916
100
AcDbEntity
8
1
100
AcDbCircle
6
CONTINUOUS
62
5
10
138.499997
20
186.000000
40
1.000000
100
AcDbArc
50
-0.000000
51
89.999999
0
LINE
5
917
100
AcDbEntity
8
1
100
AcDbLine
6
CONTINUOUS
62
5
10
139.499997
20
186.000000
11
139.499997
21
174.000000
0
ARC
5
918
100
AcDbEntity
8
1
100
AcDbCircle
6
CONTINUOUS
62
5
10
138.499997
20
174.000000
40
1.000000
100
AcDbArc
50
-89.999999
51
0.000000
0
LINE
5
919
100
AcDbEntity
8
1
100
AcDbLine
6
CONTINUOUS
62
5
10
138.499997
20
173.000000
11
131.127475
21
173.000000
0
ARC
5
91a
100
AcDbEntity
8
1
100
AcDbCircle
6
CONTINUOUS
62
5
10
131.127475
20
174.000000
40
1.000000
100
AcDbArc
50
-168.059455
51
-89.999999
0
ARC
5
91b
100
AcDbEntity
8
1
100
AcDbCircle
6
CONTINUOUS
62
5
10
159.499997
20
180.000000
40
30.000000
100
AcDbArc
50
168.059455
51
-168.059455
0
ARC
5
91c
100
AcDbEntity
8
1
100
AcDbCircle
6
CONTINUOUS
62
5
10
131.127475
20
186.000000
40
1.000000
100
AcDbArc
50
89.999999
51
168.059455
0
LINE
5
91d
100
AcDbEntity
8
1
100
AcDbLine
6
CONTINUOUS
62
5
10
131.127475
20
187.000000
11
138.499997
21
187.000000
0
ARC
5
91e
100
AcDbEntity
8
1
100
AcDbCircle
6
CONTINUOUS
62
5
10
138.499997
20
186.000000
40
1.000000
100
AcDbArc
50
-0.000000
51
89.999999
0
LINE
5
91f
100
AcDbEntity
8
1
100
AcDbLine
6
CONTINUOUS
62
5
10
139.499997
20
186.000000
11
139.499997
21
174.000000
0
ARC
5
920
100
AcDbEntity
8
1
100
AcDbCircle
6
CONTINUOUS
62
5
10
138.499997
20
174.000000
40
1.000000
100
AcDbArc
50
-89.999999
51
0.000000
0
LINE
5
921
100
AcDbEntity
8
1
100
AcDbLine
6
CONTINUOUS
62
5
10
138.499997
20
173.000000
11
131.127475
21
173.000000
0
ARC
5
922
100
AcDbEntity
8
1
100
AcDbCircle
6
CONTINUOUS
62
5
10
131.127475
20
174.000000
40
1.000000
100
AcDbArc
50
-168.059455
51
-89.999999
0
POLYLINE
5
923
100
AcDbEntity
8
1
6
CONTINUOUS
62
5
100
AcDb2dPolyline
66
1
10
0.0
20
0.0
30
0.0
70
0
0
VERTEX
5
924
100
AcDbEntity
8
1
100
AcDbVertex
100
AcDb2dVertex
62
5
10
112.499994
20
176.200000
0
VERTEX
5
925
100
AcDbEntity
8
1
100
AcDbVertex
100
AcDb2dVertex
62
5
10
113.499997
20
176.200000
0
VERTEX
5
926
100
AcDbEntity
8
1
100
AcDbVertex
100
AcDb2dVertex
62
5
10
113.499997
20
183.600000
0
VERTEX
5
927
100
AcDbEntity
8
1
100
AcDbVertex
100
AcDb2dVertex
62
5
10
112.699997
20
183.600000
0
VERTEX
5
928
100
AcDbEntity
8
1
100
AcDbVertex
100
AcDb2dVertex
62
5
10
112.699997
20
176.200000
0
SEQEND
5
929
100
AcDbEntity
8
1
0
ARC
5
92a
100
AcDbEntity
8
1
100
AcDbCircle
6
CONTINUOUS
62
5
10
141.499997
20
126.650000
40
1.000000
100
AcDbArc
50
-89.999999
51
0.000000
0
LINE
5
92b
100
AcDbEntity
8
1
100
AcDbLine
6
CONTINUOUS
62
5
10
142.499997
20
126.650000
11
142.499997
21
193.350000
0
ARC
5
92c
100
AcDbEntity
8
1
100
AcDbCircle
6
CONTINUOUS
62
5
10
141.499997
20
193.350000
40
1.000000
100
AcDbArc
50
-0.000000
51
89.999999
0
LINE
5
92d
100
AcDbEntity
8
1
100
AcDbLine
6
CONTINUOUS
62
5
10
141.499997
20
194.350000
11
115.499997
21
194.350000
0
ARC
5
92e
100
AcDbEntity
8
1
100
AcDbCircle
6
CONTINUOUS
62
5
10
115.499997
20
193.350000
40
1.000000
100
AcDbArc
50
89.999999
51
-179.999998
0
LINE
5
92f
100
AcDbEntity
8
1
100
AcDbLine
6
CONTINUOUS
62
5
10
114.499997
20
193.350000
11
114.499997
21
126.650000
0
ARC
5
930
100
AcDbEntity
8
1
100
AcDbCircle
6
CONTINUOUS
62
5
10
115.499997
20
126.650000
40
1.000000
100
AcDbArc
50
-179.999998
51
-89.999999
0
LINE
5
931
100
AcDbEntity
8
1
100
AcDbLine
6
CONTINUOUS
62
5
10
115.499997
20
125.650000
11
120.949997
21
125.650000
0
ARC
5
932
100
AcDbEntity
8
1
100
AcDbCircle
6
CONTINUOUS
62
5
10
120.949997
20
126.650000
40
1.000000
100
AcDbArc
50
-89.999999
51
-0.000000
0
LINE
5
933
100
AcDbEntity
8
1
100
AcDbLine
6
CONTINUOUS
62
5
10
121.949997
20
126.650000
11
121.949997
21
129.550000
0
ARC
5
934
100
AcDbEntity
8
1
100
AcDbCircle
6
CONTINUOUS
62
5
10
120.949997
20
129.550000
40
1.000000
100
AcDbArc
50
-0.000000
51
89.999999
0
POLYLINE
5
935
100
AcDbEntity
8
1
6
CONTINUOUS
62
5
100
AcDb2dPolyline
66
1
10
0.0
20
0.0
30
0.0
70
0
0
VERTEX
5
936
100
AcDbEntity
8
1
100
AcDbVertex
100
AcDb2dVertex
62
5
10
120.949997
20
130.550000
0
VERTEX
5
937
100
AcDbEntity
8
1
100
AcDbVertex
100
AcDb2dVertex
62
5
10
117.149997
20
130.550000
0
VERTEX
5
938
100
AcDbEntity
8
1
100
AcDbVertex
100
AcDb2dVertex
62
5
10
117.149997
20
145.400000
0
VERTEX
5
939
100
AcDbEntity
8
1
100
AcDbVertex
100
AcDb2dVertex
62
5
10
139.849997
20
145.400000
0
VERTEX
5
93a
100
AcDbEntity
8
1
100
AcDbVertex
100
AcDb2dVertex
62
5
10
139.849997
20
130.550000
0
VERTEX
5
93b
100
AcDbEntity
8
1
100
AcDbVertex
100
AcDb2dVertex
62
5
10
136.049997
20
130.550000
0
SEQEND
5
93c
100
AcDbEntity
8
1
0
ARC
5
93d
100
AcDbEntity
8
1
100
AcDbCircle
6
CONTINUOUS
62
5
10
136.049997
20
129.550000
40
1.000000
100
AcDbArc
50
89.999999
51
179.999998
0
LINE
5
93e
100
AcDbEntity
8
1
100
AcDbLine
6
CONTINUOUS
62
5
10
135.049997
20
129.550000
11
135.049997
21
126.650000
0
ARC
5
93f
100
AcDbEntity
8
1
100
AcDbCircle
6
CONTINUOUS
62
5
10
136.049997
20
126.650000
40
1.000000
100
AcDbArc
50
179.999998
51
-89.999999
0
LINE
5
940
100
AcDbEntity
8
1
100
AcDbLine
6
CONTINUOUS
62
5
10
136.049997
20
125.650000
11
141.499997
21
125.650000
0
ARC
5
941
100
AcDbEntity
8
1
100
AcDbCircle
6
CONTINUOUS
62
5
10
113.699993
20
191.500007
40
0.500000
100
AcDbArc
50
-89.999999
51
-0.000000
0
POLYLINE
5
942
100
AcDbEntity
8
1
6
CONTINUOUS
62
5
100
AcDb2dPolyline
66
1
10
0.0
20
0.0
30
0.0
70
0
0
VERTEX
5
943
100
AcDbEntity
8
1
100
AcDbVertex
100
AcDb2dVertex
62
5
10
113.699993
20
191.000008
0
VERTEX
5
944
100
AcDbEntity
8
1
100
AcDbVertex
100
AcDb2dVertex
62
5
10
112.499994
20
191.000008
0
VERTEX
5
945
100
AcDbEntity
8
1
100
AcDbVertex
100
AcDb2dVertex
62
5
10
112.499994
20
175.000012
0
VERTEX
5
946
100
AcDbEntity
8
1
100
AcDbVertex
100
AcDb2dVertex
62
5
10
113.699993
20
175.000012
0
SEQEND
5
947
100
AcDbEntity
8
1
0
ARC
5
948
100
AcDbEntity
8
1
100
AcDbCircle
6
CONTINUOUS
62
5
10
113.699993
20
174.500012
40
0.500000
100
AcDbArc
50
-0.000000
51
89.999999
0
LINE
5
949
100
AcDbEntity
8
1
100
AcDbLine
6
CONTINUOUS
62
5
10
114.199993
20
174.500012
11
114.199993
21
168.500014
0
ARC
5
94a
100
AcDbEntity
8
1
100
AcDbCircle
6
CONTINUOUS
62
5
10
113.699993
20
168.500014
40
0.500000
100
AcDbArc
50
-89.999999
51
-0.000000
0
POLYLINE
5
94b
100
AcDbEntity
8
1
6
CONTINUOUS
62
5
100
AcDb2dPolyline
66
1
10
0.0
20
0.0
30
0.0
70
0
0
VERTEX
5
94c
100
AcDbEntity
8
1
100
AcDbVertex
100
AcDb2dVertex
62
5
10
113.699993
20
168.000014
0
VERTEX
5
94d
100
AcDbEntity
8
1
100
AcDbVertex
100
AcDb2dVertex
62
5
10
112.499994
20
168.000014
0
VERTEX
5
94e
100
AcDbEntity
8
1
100
AcDbVertex
100
AcDb2dVertex
62
5
10
112.499994
20
152.000019
0
VERTEX
5
94f
100
AcDbEntity
8
1
100
AcDbVertex
100
AcDb2dVertex
62
5
10
113.699993
20
152.000019
0
SEQEND
5
950
100
AcDbEntity
8
1
0
ARC
5
951
100
AcDbEntity
8
1
100
AcDbCircle
6
CONTINUOUS
62
5
10
113.699993
20
151.500019
40
0.500000
100
AcDbArc
50
-0.000000
51
89.999999
0
LINE
5
952
100
AcDbEntity
8
1
100
AcDbLine
6
CONTINUOUS
62
5
10
114.199993
20
151.500019
11
114.199993
21
145.500021
0
ARC
5
953
100
AcDbEntity
8
1
100
AcDbCircle
6
CONTINUOUS
62
5
10
113.699993
20
145.500021
40
0.500000
100
AcDbArc
50
-89.999999
51
-0.000000
0
POLYLINE
5
954
100
AcDbEntity
8
1
6
CONTINUOUS
62
5
100
AcDb2dPolyline
66
1
10
0.0
20
0.0
30
0.0
70
0
0
VERTEX
5
955
100
AcDbEntity
8
1
100
AcDbVertex
100
AcDb2dVertex
62
5
10
113.699993
20
145.000021
0
VERTEX
5
956
100
AcDbEntity
8
1
100
AcDbVertex
100
AcDb2dVertex
62
5
10
112.499994
20
145.000021
0
VERTEX
5
957
100
AcDbEntity
8
1
100
AcDbVertex
100
AcDb2dVertex
62
5
10
112.499994
20
129.000026
0
VERTEX
5
958
100
AcDbEntity
8
1
100
AcDbVertex
100
AcDb2dVertex
62
5
10
113.699993
20
129.000026
0
SEQEND
5
959
100
AcDbEntity
8
1
0
ARC
5
95a
100
AcDbEntity
8
1
100
AcDbCircle
6
CONTINUOUS
62
5
10
113.699993
20
128.500026
40
0.500000
100
AcDbArc
50
0.000000
51
89.999999
0
POLYLINE
5
95b
100
AcDbEntity
8
1
6
CONTINUOUS
62
5
100
AcDb2dPolyline
66
1
10
0.0
20
0.0
30
0.0
70
0
0
VERTEX
5
95c
100
AcDbEntity
8
1
100
AcDbVertex
100
AcDb2dVertex
62
5
10
114.199993
20
128.500026
0
VERTEX
5
95d
100
AcDbEntity
8
1
100
AcDbVertex
100
AcDb2dVertex
62
5
10
114.199993
20
125.300017
0
VERTEX
5
95e
100
AcDbEntity
8
1
100
AcDbVertex
100
AcDb2dVertex
62
5
10
143.999984
20
125.300017
0
VERTEX
5
95f
100
AcDbEntity
8
1
100
AcDbVertex
100
AcDb2dVertex
62
5
10
143.999984
20
128.500026
0
SEQEND
5
960
100
AcDbEntity
8
1
0
ARC
5
961
100
AcDbEntity
8
1
100
AcDbCircle
6
CONTINUOUS
62
5
10
144.499984
20
128.500026
40
0.500000
100
AcDbArc
50
89.999999
51
179.999998
0
LINE
5
962
100
AcDbEntity
8
1
100
AcDbLine
6
CONTINUOUS
62
5
10
144.499984
20
129.000026
11
144.499984
21
145.000021
0
ARC
5
963
100
AcDbEntity
8
1
100
AcDbCircle
6
CONTINUOUS
62
5
10
144.499984
20
145.500021
40
0.500000
100
AcDbArc
50
-179.999998
51
-89.999999
0
LINE
5
964
100
AcDbEntity
8
1
100
AcDbLine
6
CONTINUOUS
62
5
10
143.999984
20
145.500021
11
143.999984
21
151.500019
0
ARC
5
965
100
AcDbEntity
8
1
100
AcDbCircle
6
CONTINUOUS
62
5
10
144.499984
20
151.500019
40
0.500000
100
AcDbArc
50
89.999999
51
179.999998
0
LINE
5
966
100
AcDbEntity
8
1
100
AcDbLine
6
CONTINUOUS
62
5
10
144.499984
20
152.000019
11
144.499984
21
168.000014
0
ARC
5
967
100
AcDbEntity
8
1
100
AcDbCircle
6
CONTINUOUS
62
5
10
144.499984
20
168.500014
40
0.500000
100
AcDbArc
50
179.999998
51
-89.999999
0
LINE
5
968
100
AcDbEntity
8
1
100
AcDbLine
6
CONTINUOUS
62
5
10
143.999984
20
168.500014
11
143.999984
21
174.500012
0
ARC
5
969
100
AcDbEntity
8
1
100
AcDbCircle
6
CONTINUOUS
62
5
10
144.499984
20
174.500012
40
0.500000
100
AcDbArc
50
89.999999
51
179.999998
0
LINE
5
96a
100
AcDbEntity
8
1
100
AcDbLine
6
CONTINUOUS
62
5
10
144.499984
20
175.000012
11
144.499984
21
191.000008
0
ARC
5
96b
100
AcDbEntity
8
1
100
AcDbCircle
6
CONTINUOUS
62
5
10
144.499984
20
191.500007
40
0.500000
100
AcDbArc
50
179.999998
51
-89.999999
0
POLYLINE
5
96c
100
AcDbEntity
8
1
6
CONTINUOUS
62
5
100
AcDb2dPolyline
66
1
10
0.0
20
0.0
30
0.0
70
0
0
VERTEX
5
96d
100
AcDbEntity
8
1
100
AcDbVertex
100
AcDb2dVertex
62
5
10
143.999984
20
191.500007
0
VERTEX
5
96e
100
AcDbEntity
8
1
100
AcDbVertex
100
AcDb2dVertex
62
5
10
143.999984
20
194.700017
0
VERTEX
5
96f
100
AcDbEntity
8
1
100
AcDbVertex
100
AcDb2dVertex
62
5
10
114.199993
20
194.700017
0
VERTEX
5
970
100
AcDbEntity
8
1
100
AcDbVertex
100
AcDb2dVertex
62
5
10
114.199993
20
191.500007
0
SEQEND
5
971
100
AcDbEntity
8
1
0
ARC
5
972
100
AcDbEntity
8
1
100
AcDbCircle
6
CONTINUOUS
62
5
10
144.499984
20
191.500007
40
0.400000
100
AcDbArc
50
179.999998
51
-89.999999
0
POLYLINE
5
973
100
AcDbEntity
8
1
6
CONTINUOUS
62
5
100
AcDb2dPolyline
66
1
10
0.0
20
0.0
30
0.0
70
0
0
VERTEX
5
974
100
AcDbEntity
8
1
100
AcDbVertex
100
AcDb2dVertex
62
5
10
144.499984
20
191.100008
0
VERTEX
5
975
100
AcDbEntity
8
1
100
AcDbVertex
100
AcDb2dVertex
62
5
10
144.599984
20
191.100008
0
VERTEX
5
976
100
AcDbEntity
8
1
100
AcDbVertex
100
AcDb2dVertex
62
5
10
144.599984
20
174.900012
0
VERTEX
5
977
100
AcDbEntity
8
1
100
AcDbVertex
100
AcDb2dVertex
62
5
10
144.499984
20
174.900012
0
SEQEND
5
978
100
AcDbEntity
8
1
0
ARC
5
979
100
AcDbEntity
8
1
100
AcDbCircle
6
CONTINUOUS
62
5
10
144.499984
20
174.500012
40
0.400000
100
AcDbArc
50
89.999999
51
-179.999998
0
LINE
5
97a
100
AcDbEntity
8
1
100
AcDbLine
6
CONTINUOUS
62
5
10
144.099984
20
174.500012
11
144.099984
21
168.500014
0
ARC
5
97b
100
AcDbEntity
8
1
100
AcDbCircle
6
CONTINUOUS
62
5
10
144.499984
20
168.500014
40
0.400000
100
AcDbArc
50
179.999998
51
-89.999999
0
POLYLINE
5
97c
100
AcDbEntity
8
1
6
CONTINUOUS
62
5
100
AcDb2dPolyline
66
1
10
0.0
20
0.0
30
0.0
70
0
0
VERTEX
5
97d
100
AcDbEntity
8
1
100
AcDbVertex
100
AcDb2dVertex
62
5
10
144.499984
20
168.100014
0
VERTEX
5
97e
100
AcDbEntity
8
1
100
AcDbVertex
100
AcDb2dVertex
62
5
10
144.599984
20
168.100014
0
VERTEX
5
97f
100
AcDbEntity
8
1
100
AcDbVertex
100
AcDb2dVertex
62
5
10
144.599984
20
151.900019
0
VERTEX
5
980
100
AcDbEntity
8
1
100
AcDbVertex
100
AcDb2dVertex
62
5
10
144.499984
20
151.900019
0
SEQEND
5
981
100
AcDbEntity
8
1
0
ARC
5
982
100
AcDbEntity
8
1
100
AcDbCircle
6
CONTINUOUS
62
5
10
144.499984
20
151.500019
40
0.400000
100
AcDbArc
50
89.999999
51
-179.999998
0
LINE
5
983
100
AcDbEntity
8
1
100
AcDbLine
6
CONTINUOUS
62
5
10
144.099984
20
151.500019
11
144.099984
21
145.500021
0
ARC
5
984
100
AcDbEntity
8
1
100
AcDbCircle
6
CONTINUOUS
62
5
10
144.499984
20
145.500021
40
0.400000
100
AcDbArc
50
179.999998
51
-89.999999
0
POLYLINE
5
985
100
AcDbEntity
8
1
6
CONTINUOUS
62
5
100
AcDb2dPolyline
66
1
10
0.0
20
0.0
30
0.0
70
0
0
VERTEX
5
986
100
AcDbEntity
8
1
100
AcDbVertex
100
AcDb2dVertex
62
5
10
144.499984
20
145.100021
0
VERTEX
5
987
100
AcDbEntity
8
1
100
AcDbVertex
100
AcDb2dVertex
62
5
10
144.599984
20
145.100021
0
VERTEX
5
988
100
AcDbEntity
8
1
100
AcDbVertex
100
AcDb2dVertex
62
5
10
144.599984
20
128.900026
0
VERTEX
5
989
100
AcDbEntity
8
1
100
AcDbVertex
100
AcDb2dVertex
62
5
10
144.499984
20
128.900026
0
SEQEND
5
98a
100
AcDbEntity
8
1
0
ARC
5
98b
100
AcDbEntity
8
1
100
AcDbCircle
6
CONTINUOUS
62
5
10
144.499984
20
128.500026
40
0.400000
100
AcDbArc
50
89.999999
51
179.999998
0
POLYLINE
5
98c
100
AcDbEntity
8
1
6
CONTINUOUS
62
5
100
AcDb2dPolyline
66
1
10
0.0
20
0.0
30
0.0
70
0
0
VERTEX
5
98d
100
AcDbEntity
8
1
100
AcDbVertex
100
AcDb2dVertex
62
5
10
144.099984
20
128.500026
0
VERTEX
5
98e
100
AcDbEntity
8
1
100
AcDbVertex
100
AcDb2dVertex
62
5
10
144.099984
20
125.100017
0
VERTEX
5
98f
100
AcDbEntity
8
1
100
AcDbVertex
100
AcDb2dVertex
62
5
10
114.099993
20
125.100017
0
VERTEX
5
990
100
AcDbEntity
8
1
100
AcDbVertex
100
AcDb2dVertex
62
5
10
114.099993
20
128.500026
0
SEQEND
5
991
100
AcDbEntity
8
1
0
ARC
5
992
100
AcDbEntity
8
1
100
AcDbCircle
6
CONTINUOUS
62
5
10
113.699993
20
128.500026
40
0.400000
100
AcDbArc
50
-0.000000
51
89.999999
0
POLYLINE
5
993
100
AcDbEntity
8
1
6
CONTINUOUS
62
5
100
AcDb2dPolyline
66
1
10
0.0
20
0.0
30
0.0
70
0
0
VERTEX
5
994
100
AcDbEntity
8
1
100
AcDbVertex
100
AcDb2dVertex
62
5
10
113.699993
20
128.900026
0
VERTEX
5
995
100
AcDbEntity
8
1
100
AcDbVertex
100
AcDb2dVertex
62
5
10
112.399994
20
128.900026
0
VERTEX
5
996
100
AcDbEntity
8
1
100
AcDbVertex
100
AcDb2dVertex
62
5
10
112.399994
20
145.100021
0
VERTEX
5
997
100
AcDbEntity
8
1
100
AcDbVertex
100
AcDb2dVertex
62
5
10
113.699993
20
145.100021
0
SEQEND
5
998
100
AcDbEntity
8
1
0
ARC
5
999
100
AcDbEntity
8
1
100
AcDbCircle
6
CONTINUOUS
62
5
10
113.699993
20
145.500021
40
0.400000
100
AcDbArc
50
-89.999999
51
-0.000000
0
LINE
5
99a
100
AcDbEntity
8
1
100
AcDbLine
6
CONTINUOUS
62
5
10
114.099993
20
145.500021
11
114.099993
21
151.500019
0
ARC
5
99b
100
AcDbEntity
8
1
100
AcDbCircle
6
CONTINUOUS
62
5
10
113.699993
20
151.500019
40
0.400000
100
AcDbArc
50
0.000000
51
89.999999
0
POLYLINE
5
99c
100
AcDbEntity
8
1
6
CONTINUOUS
62
5
100
AcDb2dPolyline
66
1
10
0.0
20
0.0
30
0.0
70
0
0
VERTEX
5
99d
100
AcDbEntity
8
1
100
AcDbVertex
100
AcDb2dVertex
62
5
10
113.699993
20
151.900019
0
VERTEX
5
99e
100
AcDbEntity
8
1
100
AcDbVertex
100
AcDb2dVertex
62
5
10
112.399994
20
151.900019
0
VERTEX
5
99f
100
AcDbEntity
8
1
100
AcDbVertex
100
AcDb2dVertex
62
5
10
112.399994
20
168.100014
0
VERTEX
5
9a0
100
AcDbEntity
8
1
100
AcDbVertex
100
AcDb2dVertex
62
5
10
113.699993
20
168.100014
0
SEQEND
5
9a1
100
AcDbEntity
8
1
0
ARC
5
9a2
100
AcDbEntity
8
1
100
AcDbCircle
6
CONTINUOUS
62
5
10
113.699993
20
168.500014
40
0.400000
100
AcDbArc
50
-89.999999
51
-0.000000
0
LINE
5
9a3
100
AcDbEntity
8
1
100
AcDbLine
6
CONTINUOUS
62
5
10
114.099993
20
168.500014
11
114.099993
21
174.500012
0
ARC
5
9a4
100
AcDbEntity
8
1
100
AcDbCircle
6
CONTINUOUS
62
5
10
113.699993
20
174.500012
40
0.400000
100
AcDbArc
50
0.000000
51
89.999999
0
POLYLINE
5
9a5
100
AcDbEntity
8
1
6
CONTINUOUS
62
5
100
AcDb2dPolyline
66
1
10
0.0
20
0.0
30
0.0
70
0
0
VERTEX
5
9a6
100
AcDbEntity
8
1
100
AcDbVertex
100
AcDb2dVertex
62
5
10
113.699993
20
174.900012
0
VERTEX
5
9a7
100
AcDbEntity
8
1
100
AcDbVertex
100
AcDb2dVertex
62
5
10
112.399994
20
174.900012
0
VERTEX
5
9a8
100
AcDbEntity
8
1
100
AcDbVertex
100
AcDb2dVertex
62
5
10
112.399994
20
191.100008
0
VERTEX
5
9a9
100
AcDbEntity
8
1
100
AcDbVertex
100
AcDb2dVertex
62
5
10
113.699993
20
191.100008
0
SEQEND
5
9aa
100
AcDbEntity
8
1
0
ARC
5
9ab
100
AcDbEntity
8
1
100
AcDbCircle
6
CONTINUOUS
62
5
10
113.699993
20
191.500007
40
0.400000
100
AcDbArc
50
-89.999999
51
0.000000
0
LINE
5
9ac
100
AcDbEntity
8
1
100
AcDbLine
6
CONTINUOUS
62
5
10
114.099993
20
191.500007
11
114.099993
21
194.900017
0
POLYLINE
5
9ad
100
AcDbEntity
8
1
6
CONTINUOUS
62
5
100
AcDb2dPolyline
66
1
10
0.0
20
0.0
30
0.0
70
0
0
VERTEX
5
9ae
100
AcDbEntity
8
1
100
AcDbVertex
100
AcDb2dVertex
62
5
10
114.099993
20
194.900017
0
VERTEX
5
9af
100
AcDbEntity
8
1
100
AcDbVertex
100
AcDb2dVertex
62
5
10
144.099984
20
194.900017
0
VERTEX
5
9b0
100
AcDbEntity
8
1
100
AcDbVertex
100
AcDb2dVertex
62
5
10
144.099984
20
191.500007
0
SEQEND
5
9b1
100
AcDbEntity
8
1
0
ARC
5
9b2
100
AcDbEntity
8
1
100
AcDbCircle
6
CONTINUOUS
62
5
10
149.699982
20
200.500005
40
1.899999
100
AcDbArc
50
0.000000
51
89.999999
0
LINE
5
9b3
100
AcDbEntity
8
1
100
AcDbLine
6
CONTINUOUS
62
5
10
151.599982
20
200.500005
11
151.599982
21
192.500007
0
ARC
5
9b4
100
AcDbEntity
8
1
100
AcDbCircle
6
CONTINUOUS
62
5
10
151.199982
20
192.500007
40
0.400000
100
AcDbArc
50
-89.999999
51
0.000000
0
POLYLINE
5
9b5
100
AcDbEntity
8
1
6
CONTINUOUS
62
5
100
AcDb2dPolyline
66
1
10
0.0
20
0.0
30
0.0
70
0
0
VERTEX
5
9b6
100
AcDbEntity
8
1
100
AcDbVertex
100
AcDb2dVertex
62
5
10
151.199982
20
192.100007
0
VERTEX
5
9b7
100
AcDbEntity
8
1
100
AcDbVertex
100
AcDb2dVertex
62
5
10
148.399983
20
192.100007
0
VERTEX
5
9b8
100
AcDbEntity
8
1
100
AcDbVertex
100
AcDb2dVertex
62
5
10
148.399983
20
173.900013
0
VERTEX
5
9b9
100
AcDbEntity
8
1
100
AcDbVertex
100
AcDb2dVertex
62
5
10
151.199982
20
173.900013
0
SEQEND
5
9ba
100
AcDbEntity
8
1
0
ARC
5
9bb
100
AcDbEntity
8
1
100
AcDbCircle
6
CONTINUOUS
62
5
10
151.199982
20
173.500013
40
0.400000
100
AcDbArc
50
-0.000000
51
89.999999
0
LINE
5
9bc
100
AcDbEntity
8
1
100
AcDbLine
6
CONTINUOUS
62
5
10
151.599982
20
173.500013
11
151.599982
21
169.500014
0
ARC
5
9bd
100
AcDbEntity
8
1
100
AcDbCircle
6
CONTINUOUS
62
5
10
151.199982
20
169.500014
40
0.400000
100
AcDbArc
50
-89.999999
51
0.000000
0
POLYLINE
5
9be
100
AcDbEntity
8
1
6
CONTINUOUS
62
5
100
AcDb2dPolyline
66
1
10
0.0
20
0.0
30
0.0
70
0
0
VERTEX
5
9bf
100
AcDbEntity
8
1
100
AcDbVertex
100
AcDb2dVertex
62
5
10
151.199982
20
169.100014
0
VERTEX
5
9c0
100
AcDbEntity
8
1
100
AcDbVertex
100
AcDb2dVertex
62
5
10
148.399991
20
169.100014
0
VERTEX
5
9c1
100
AcDbEntity
8
1
100
AcDbVertex
100
AcDb2dVertex
62
5
10
148.399991
20
150.900020
0
VERTEX
5
9c2
100
AcDbEntity
8
1
100
AcDbVertex
100
AcDb2dVertex
62
5
10
151.199982
20
150.900020
0
SEQEND
5
9c3
100
AcDbEntity
8
1
0
ARC
5
9c4
100
AcDbEntity
8
1
100
AcDbCircle
6
CONTINUOUS
62
5
10
151.199982
20
150.500020
40
0.400000
100
AcDbArc
50
0.000000
51
89.999999
0
LINE
5
9c5
100
AcDbEntity
8
1
100
AcDbLine
6
CONTINUOUS
62
5
10
151.599982
20
150.500020
11
151.599982
21
146.500021
0
ARC
5
9c6
100
AcDbEntity
8
1
100
AcDbCircle
6
CONTINUOUS
62
5
10
151.199982
20
146.500021
40
0.400000
100
AcDbArc
50
-89.999999
51
-0.000000
0
POLYLINE
5
9c7
100
AcDbEntity
8
1
6
CONTINUOUS
62
5
100
AcDb2dPolyline
66
1
10
0.0
20
0.0
30
0.0
70
0
0
VERTEX
5
9c8
100
AcDbEntity
8
1
100
AcDbVertex
100
AcDb2dVertex
62
5
10
151.199982
20
146.100021
0
VERTEX
5
9c9
100
AcDbEntity
8
1
100
AcDbVertex
100
AcDb2dVertex
62
5
10
148.399983
20
146.100021
0
VERTEX
5
9ca
100
AcDbEntity
8
1
100
AcDbVertex
100
AcDb2dVertex
62
5
10
148.399983
20
127.900026
0
VERTEX
5
9cb
100
AcDbEntity
8
1
100
AcDbVertex
100
AcDb2dVertex
62
5
10
151.199982
20
127.900026
0
SEQEND
5
9cc
100
AcDbEntity
8
1
0
ARC
5
9cd
100
AcDbEntity
8
1
100
AcDbCircle
6
CONTINUOUS
62
5
10
151.199982
20
127.500027
40
0.400000
100
AcDbArc
50
-0.000000
51
89.999999
0
LINE
5
9ce
100
AcDbEntity
8
1
100
AcDbLine
6
CONTINUOUS
62
5
10
151.599982
20
127.500027
11
151.599982
21
119.500029
0
ARC
5
9cf
100
AcDbEntity
8
1
100
AcDbCircle
6
CONTINUOUS
62
5
10
149.699982
20
119.500029
40
1.899999
100
AcDbArc
50
-89.999999
51
0.000000
0
LINE
5
9d0
100
AcDbEntity
8
1
100
AcDbLine
6
CONTINUOUS
62
5
10
149.699982
20
117.600030
11
148.299983
21
117.600030
0
LINE
5
9d1
100
AcDbEntity
8
1
100
AcDbLine
6
CONTINUOUS
62
5
10
148.299983
20
202.400004
11
149.699982
21
202.400004
0
ARC
5
9d2
100
AcDbEntity
8
1
100
AcDbCircle
6
CONTINUOUS
62
5
10
107.799995
20
200.500005
40
1.899999
100
AcDbArc
50
89.999999
51
179.999998
0
LINE
5
9d3
100
AcDbEntity
8
1
100
AcDbLine
6
CONTINUOUS
62
5
10
105.899996
20
200.500005
11
105.899996
21
191.800017
0
ARC
5
9d4
100
AcDbEntity
8
1
100
AcDbCircle
6
CONTINUOUS
62
5
10
106.299996
20
191.800017
40
0.400000
100
AcDbArc
50
179.999998
51
-89.999999
0
POLYLINE
5
9d5
100
AcDbEntity
8
1
6
CONTINUOUS
62
5
100
AcDb2dPolyline
66
1
10
0.0
20
0.0
30
0.0
70
0
0
VERTEX
5
9d6
100
AcDbEntity
8
1
100
AcDbVertex
100
AcDb2dVertex
62
5
10
106.299996
20
191.400017
0
VERTEX
5
9d7
100
AcDbEntity
8
1
100
AcDbVertex
100
AcDb2dVertex
62
5
10
108.599989
20
191.400017
0
VERTEX
5
9d8
100
AcDbEntity
8
1
100
AcDbVertex
100
AcDb2dVertex
62
5
10
108.599989
20
187.900010
0
VERTEX
5
9d9
100
AcDbEntity
8
1
100
AcDbVertex
100
AcDb2dVertex
62
5
10
106.299996
20
187.900010
0
SEQEND
5
9da
100
AcDbEntity
8
1
0
ARC
5
9db
100
AcDbEntity
8
1
100
AcDbCircle
6
CONTINUOUS
62
5
10
106.299996
20
187.500010
40
0.400000
100
AcDbArc
50
89.999999
51
-179.999998
0
LINE
5
9dc
100
AcDbEntity
8
1
100
AcDbLine
6
CONTINUOUS
62
5
10
105.899996
20
187.500010
11
105.899996
21
178.500010
0
ARC
5
9dd
100
AcDbEntity
8
1
100
AcDbCircle
6
CONTINUOUS
62
5
10
106.299996
20
178.500010
40
0.400000
100
AcDbArc
50
-179.999998
51
-89.999999
0
POLYLINE
5
9de
100
AcDbEntity
8
1
6
CONTINUOUS
62
5
100
AcDb2dPolyline
66
1
10
0.0
20
0.0
30
0.0
70
0
0
VERTEX
5
9df
100
AcDbEntity
8
1
100
AcDbVertex
100
AcDb2dVertex
62
5
10
106.299996
20
178.100010
0
VERTEX
5
9e0
100
AcDbEntity
8
1
100
AcDbVertex
100
AcDb2dVertex
62
5
10
108.599989
20
178.100010
0
VERTEX
5
9e1
100
AcDbEntity
8
1
100
AcDbVertex
100
AcDb2dVertex
62
5
10
108.599989
20
174.600017
0
VERTEX
5
9e2
100
AcDbEntity
8
1
100
AcDbVertex
100
AcDb2dVertex
62
5
10
106.299996
20
174.600017
0
SEQEND
5
9e3
100
AcDbEntity
8
1
0
ARC
5
9e4
100
AcDbEntity
8
1
100
AcDbCircle
6
CONTINUOUS
62
5
10
106.299996
20
174.200017
40
0.400000
100
AcDbArc
50
89.999999
51
-179.999998
0
LINE
5
9e5
100
AcDbEntity
8
1
100
AcDbLine
6
CONTINUOUS
62
5
10
105.899996
20
174.200017
11
105.899996
21
168.800017
0
ARC
5
9e6
100
AcDbEntity
8
1
100
AcDbCircle
6
CONTINUOUS
62
5
10
106.299996
20
168.800017
40
0.400000
100
AcDbArc
50
179.999998
51
-89.999999
0
POLYLINE
5
9e7
100
AcDbEntity
8
1
6
CONTINUOUS
62
5
100
AcDb2dPolyline
66
1
10
0.0
20
0.0
30
0.0
70
0
0
VERTEX
5
9e8
100
AcDbEntity
8
1
100
AcDbVertex
100
AcDb2dVertex
62
5
10
106.299996
20
168.400017
0
VERTEX
5
9e9
100
AcDbEntity
8
1
100
AcDbVertex
100
AcDb2dVertex
62
5
10
108.599982
20
168.400010
0
VERTEX
5
9ea
100
AcDbEntity
8
1
100
AcDbVertex
100
AcDb2dVertex
62
5
10
108.599995
20
164.900015
0
VERTEX
5
9eb
100
AcDbEntity
8
1
100
AcDbVertex
100
AcDb2dVertex
62
5
10
106.300002
20
164.900015
0
SEQEND
5
9ec
100
AcDbEntity
8
1
0
ARC
5
9ed
100
AcDbEntity
8
1
100
AcDbCircle
6
CONTINUOUS
62
5
10
106.300002
20
164.500015
40
0.400000
100
AcDbArc
50
89.999999
51
179.999998
0
LINE
5
9ee
100
AcDbEntity
8
1
100
AcDbLine
6
CONTINUOUS
62
5
10
105.900002
20
164.500015
11
105.899996
21
155.500018
0
ARC
5
9ef
100
AcDbEntity
8
1
100
AcDbCircle
6
CONTINUOUS
62
5
10
106.299996
20
155.500018
40
0.400000
100
AcDbArc
50
-179.999998
51
-89.999999
0
POLYLINE
5
9f0
100
AcDbEntity
8
1
6
CONTINUOUS
62
5
100
AcDb2dPolyline
66
1
10
0.0
20
0.0
30
0.0
70
0
0
VERTEX
5
9f1
100
AcDbEntity
8
1
100
AcDbVertex
100
AcDb2dVertex
62
5
10
106.299996
20
155.100018
0
VERTEX
5
9f2
100
AcDbEntity
8
1
100
AcDbVertex
100
AcDb2dVertex
62
5
10
108.599989
20
155.100018
0
VERTEX
5
9f3
100
AcDbEntity
8
1
100
AcDbVertex
100
AcDb2dVertex
62
5
10
108.600003
20
151.600017
0
VERTEX
5
9f4
100
AcDbEntity
8
1
100
AcDbVertex
100
AcDb2dVertex
62
5
10
106.299996
20
151.600017
0
SEQEND
5
9f5
100
AcDbEntity
8
1
0
ARC
5
9f6
100
AcDbEntity
8
1
100
AcDbCircle
6
CONTINUOUS
62
5
10
106.299996
20
151.200017
40
0.400000
100
AcDbArc
50
89.999999
51
-179.999998
0
LINE
5
9f7
100
AcDbEntity
8
1
100
AcDbLine
6
CONTINUOUS
62
5
10
105.899996
20
151.200017
11
105.899996
21
145.800017
0
ARC
5
9f8
100
AcDbEntity
8
1
100
AcDbCircle
6
CONTINUOUS
62
5
10
106.299996
20
145.800017
40
0.400000
100
AcDbArc
50
179.999998
51
-89.999999
0
POLYLINE
5
9f9
100
AcDbEntity
8
1
6
CONTINUOUS
62
5
100
AcDb2dPolyline
66
1
10
0.0
20
0.0
30
0.0
70
0
0
VERTEX
5
9fa
100
AcDbEntity
8
1
100
AcDbVertex
100
AcDb2dVertex
62
5
10
106.299996
20
145.400017
0
VERTEX
5
9fb
100
AcDbEntity
8
1
100
AcDbVertex
100
AcDb2dVertex
62
5
10
108.599989
20
145.400017
0
VERTEX
5
9fc
100
AcDbEntity
8
1
100
AcDbVertex
100
AcDb2dVertex
62
5
10
108.599989
20
141.900024
0
VERTEX
5
9fd
100
AcDbEntity
8
1
100
AcDbVertex
100
AcDb2dVertex
62
5
10
106.299996
20
141.900024
0
SEQEND
5
9fe
100
AcDbEntity
8
1
0
ARC
5
9ff
100
AcDbEntity
8
1
100
AcDbCircle
6
CONTINUOUS
62
5
10
106.299996
20
141.500024
40
0.400000
100
AcDbArc
50
89.999999
51
179.999998
0
LINE
5
a00
100
AcDbEntity
8
1
100
AcDbLine
6
CONTINUOUS
62
5
10
105.899996
20
141.500024
11
105.899996
21
132.500024
0
ARC
5
a01
100
AcDbEntity
8
1
100
AcDbCircle
6
CONTINUOUS
62
5
10
106.299996
20
132.500024
40
0.400000
100
AcDbArc
50
-179.999998
51
-89.999999
0
POLYLINE
5
a02
100
AcDbEntity
8
1
6
CONTINUOUS
62
5
100
AcDb2dPolyline
66
1
10
0.0
20
0.0
30
0.0
70
0
0
VERTEX
5
a03
100
AcDbEntity
8
1
100
AcDbVertex
100
AcDb2dVertex
62
5
10
106.299996
20
132.100024
0
VERTEX
5
a04
100
AcDbEntity
8
1
100
AcDbVertex
100
AcDb2dVertex
62
5
10
108.599989
20
132.100024
0
VERTEX
5
a05
100
AcDbEntity
8
1
100
AcDbVertex
100
AcDb2dVertex
62
5
10
108.599989
20
128.600017
0
VERTEX
5
a06
100
AcDbEntity
8
1
100
AcDbVertex
100
AcDb2dVertex
62
5
10
106.299996
20
128.600017
0
SEQEND
5
a07
100
AcDbEntity
8
1
0
ARC
5
a08
100
AcDbEntity
8
1
100
AcDbCircle
6
CONTINUOUS
62
5
10
106.299996
20
128.200017
40
0.400000
100
AcDbArc
50
89.999999
51
179.999998
0
LINE
5
a09
100
AcDbEntity
8
1
100
AcDbLine
6
CONTINUOUS
62
5
10
105.899996
20
128.200017
11
105.899996
21
119.500029
0
ARC
5
a0a
100
AcDbEntity
8
1
100
AcDbCircle
6
CONTINUOUS
62
5
10
107.799995
20
119.500029
40
1.899999
100
AcDbArc
50
-179.999998
51
-89.999999
0
LINE
5
a0b
100
AcDbEntity
8
1
100
AcDbLine
6
CONTINUOUS
62
5
10
107.799995
20
117.600030
11
108.699995
21
117.600030
0
LINE
5
a0c
100
AcDbEntity
8
1
100
AcDbLine
6
CONTINUOUS
62
5
10
108.699995
20
202.400004
11
107.799995
21
202.400004
0
ARC
5
a0d
100
AcDbEntity
8
1
100
AcDbCircle
6
CONTINUOUS
62
5
10
109.300002
20
215.000000
40
1.000000
100
AcDbArc
50
89.999999
51
179.999998
0
LINE
5
a0e
100
AcDbEntity
8
1
100
AcDbLine
6
CONTINUOUS
62
5
10
108.300003
20
215.000000
11
108.300003
21
213.714168
0
ARC
5
a0f
100
AcDbEntity
8
1
100
AcDbCircle
6
CONTINUOUS
62
5
10
107.299996
20
213.714168
40
1.000007
100
AcDbArc
50
-45.573321
51
0.000001
0
LINE
5
a10
100
AcDbEntity
8
1
100
AcDbLine
6
CONTINUOUS
62
5
10
107.999997
20
213.000017
11
107.999997
21
210.000002
0
ARC
5
a11
100
AcDbEntity
8
1
100
AcDbCircle
6
CONTINUOUS
62
5
10
108.999997
20
210.000002
40
1.000000
100
AcDbArc
50
179.999998
51
-89.999999
0
POLYLINE
5
a12
100
AcDbEntity
8
1
6
CONTINUOUS
62
5
100
AcDb2dPolyline
66
1
10
0.0
20
0.0
30
0.0
70
0
0
VERTEX
5
a13
100
AcDbEntity
8
1
100
AcDbVertex
100
AcDb2dVertex
62
5
10
108.999997
20
209.000002
0
VERTEX
5
a14
100
AcDbEntity
8
1
100
AcDbVertex
100
AcDb2dVertex
62
5
10
110.678016
20
209.000002
0
VERTEX
5
a15
100
AcDbEntity
8
1
100
AcDbVertex
100
AcDb2dVertex
62
5
10
110.700002
20
203.500004
0
SEQEND
5
a16
100
AcDbEntity
8
1
0
ARC
5
a17
100
AcDbEntity
8
1
100
AcDbCircle
6
CONTINUOUS
62
5
10
109.700002
20
203.500004
40
1.000000
100
AcDbArc
50
-89.999999
51
0.000000
0
LINE
5
a18
100
AcDbEntity
8
1
100
AcDbLine
6
CONTINUOUS
62
5
10
109.700002
20
202.500004
11
107.800003
21
202.500004
0
ARC
5
a19
100
AcDbEntity
8
1
100
AcDbCircle
6
CONTINUOUS
62
5
10
107.800003
20
200.500005
40
1.999999
100
AcDbArc
50
89.999999
51
179.999998
0
LINE
5
a1a
100
AcDbEntity
8
1
100
AcDbLine
6
CONTINUOUS
62
5
10
105.800003
20
200.500005
11
105.800003
21
119.500029
0
ARC
5
a1b
100
AcDbEntity
8
1
100
AcDbCircle
6
CONTINUOUS
62
5
10
107.800003
20
119.500029
40
1.999999
100
AcDbArc
50
179.999998
51
-89.999999
0
LINE
5
a1c
100
AcDbEntity
8
1
100
AcDbLine
6
CONTINUOUS
62
5
10
107.800003
20
117.500030
11
109.700002
21
117.500030
0
ARC
5
a1d
100
AcDbEntity
8
1
100
AcDbCircle
6
CONTINUOUS
62
5
10
109.700002
20
116.500030
40
1.000000
100
AcDbArc
50
-0.000000
51
89.999999
0
POLYLINE
5
a1e
100
AcDbEntity
8
1
6
CONTINUOUS
62
5
100
AcDb2dPolyline
66
1
10
0.0
20
0.0
30
0.0
70
0
0
VERTEX
5
a1f
100
AcDbEntity
8
1
100
AcDbVertex
100
AcDb2dVertex
62
5
10
110.700002
20
116.500030
0
VERTEX
5
a20
100
AcDbEntity
8
1
100
AcDbVertex
100
AcDb2dVertex
62
5
10
110.700002
20
111.000032
0
VERTEX
5
a21
100
AcDbEntity
8
1
100
AcDbVertex
100
AcDb2dVertex
62
5
10
108.999997
20
111.000032
0
SEQEND
5
a22
100
AcDbEntity
8
1
0
ARC
5
a23
100
AcDbEntity
8
1
100
AcDbCircle
6
CONTINUOUS
62
5
10
108.999997
20
110.000032
40
1.000000
100
AcDbArc
50
89.999999
51
179.999998
0
LINE
5
a24
100
AcDbEntity
8
1
100
AcDbLine
6
CONTINUOUS
62
5
10
107.999997
20
110.000032
11
108.000003
21
107.000017
0
ARC
5
a25
100
AcDbEntity
8
1
100
AcDbCircle
6
CONTINUOUS
62
5
10
107.299971
20
106.285861
40
1.000032
100
AcDbArc
50
0.000450
51
45.572234
0
LINE
5
a26
100
AcDbEntity
8
1
100
AcDbLine
6
CONTINUOUS
62
5
10
108.300003
20
106.285869
11
108.300003
21
105.000033
0
ARC
5
a27
100
AcDbEntity
8
1
100
AcDbCircle
6
CONTINUOUS
62
5
10
109.300002
20
105.000033
40
1.000000
100
AcDbArc
50
179.999998
51
-89.999999
0
LINE
5
a28
100
AcDbEntity
8
1
100
AcDbLine
6
CONTINUOUS
62
5
10
109.300002
20
104.000034
11
153.299997
21
104.000034
0
ARC
5
a29
100
AcDbEntity
8
1
100
AcDbCircle
6
CONTINUOUS
62
5
10
153.299997
20
105.000034
40
1.000000
100
AcDbArc
50
-89.999999
51
-0.000000
0
LINE
5
a2a
100
AcDbEntity
8
1
100
AcDbLine
6
CONTINUOUS
62
5
10
154.299997
20
105.000034
11
154.299997
21
105.750033
0
ARC
5
a2b
100
AcDbEntity
8
1
100
AcDbCircle
6
CONTINUOUS
62
5
10
153.299997
20
105.750033
40
1.000000
100
AcDbArc
50
0.000000
51
89.999999
0
POLYLINE
5
a2c
100
AcDbEntity
8
1
6
CONTINUOUS
62
5
100
AcDb2dPolyline
66
1
10
0.0
20
0.0
30
0.0
70
0
0
VERTEX
5
a2d
100
AcDbEntity
8
1
100
AcDbVertex
100
AcDb2dVertex
62
5
10
153.299997
20
106.750033
0
VERTEX
5
a2e
100
AcDbEntity
8
1
100
AcDbVertex
100
AcDb2dVertex
62
5
10
148.999990
20
106.750033
0
VERTEX
5
a2f
100
AcDbEntity
8
1
100
AcDbVertex
100
AcDb2dVertex
62
5
10
148.999990
20
110.000032
0
SEQEND
5
a30
100
AcDbEntity
8
1
0
ARC
5
a31
100
AcDbEntity
8
1
100
AcDbCircle
6
CONTINUOUS
62
5
10
147.999990
20
110.000032
40
1.000000
100
AcDbArc
50
0.000000
51
89.999998
0
POLYLINE
5
a32
100
AcDbEntity
8
1
6
CONTINUOUS
62
5
100
AcDb2dPolyline
66
1
10
0.0
20
0.0
30
0.0
70
0
0
VERTEX
5
a33
100
AcDbEntity
8
1
100
AcDbVertex
100
AcDb2dVertex
62
5
10
147.999990
20
111.000031
0
VERTEX
5
a34
100
AcDbEntity
8
1
100
AcDbVertex
100
AcDb2dVertex
62
5
10
146.299991
20
111.000032
0
VERTEX
5
a35
100
AcDbEntity
8
1
100
AcDbVertex
100
AcDb2dVertex
62
5
10
146.299991
20
116.500030
0
SEQEND
5
a36
100
AcDbEntity
8
1
0
ARC
5
a37
100
AcDbEntity
8
1
100
AcDbCircle
6
CONTINUOUS
62
5
10
147.299991
20
116.500030
40
1.000000
100
AcDbArc
50
89.999999
51
179.999998
0
LINE
5
a38
100
AcDbEntity
8
1
100
AcDbLine
6
CONTINUOUS
62
5
10
147.299991
20
117.500030
11
149.699990
21
117.500030
0
ARC
5
a39
100
AcDbEntity
8
1
100
AcDbCircle
6
CONTINUOUS
62
5
10
149.699990
20
119.500029
40
1.999999
100
AcDbArc
50
-89.999999
51
0.000000
0
LINE
5
a3a
100
AcDbEntity
8
1
100
AcDbLine
6
CONTINUOUS
62
5
10
151.699990
20
119.500029
11
151.699990
21
200.500005
0
ARC
5
a3b
100
AcDbEntity
8
1
100
AcDbCircle
6
CONTINUOUS
62
5
10
149.699990
20
200.500005
40
1.999999
100
AcDbArc
50
-0.000000
51
89.999999
0
LINE
5
a3c
100
AcDbEntity
8
1
100
AcDbLine
6
CONTINUOUS
62
5
10
149.699990
20
202.500004
11
147.299991
21
202.500004
0
ARC
5
a3d
100
AcDbEntity
8
1
100
AcDbCircle
6
CONTINUOUS
62
5
10
147.299991
20
203.500004
40
1.000000
100
AcDbArc
50
-179.999998
51
-89.999999
0
POLYLINE
5
a3e
100
AcDbEntity
8
1
6
CONTINUOUS
62
5
100
AcDb2dPolyline
66
1
10
0.0
20
0.0
30
0.0
70
0
0
VERTEX
5
a3f
100
AcDbEntity
8
1
100
AcDbVertex
100
AcDb2dVertex
62
5
10
146.299991
20
203.500004
0
VERTEX
5
a40
100
AcDbEntity
8
1
100
AcDbVertex
100
AcDb2dVertex
62
5
10
146.299991
20
209.000002
0
VERTEX
5
a41
100
AcDbEntity
8
1
100
AcDbVertex
100
AcDb2dVertex
62
5
10
147.999990
20
209.000002
0
SEQEND
5
a42
100
AcDbEntity
8
1
0
ARC
5
a43
100
AcDbEntity
8
1
100
AcDbCircle
6
CONTINUOUS
62
5
10
147.999990
20
210.000002
40
1.000000
100
AcDbArc
50
-89.999999
51
-0.000000
0
POLYLINE
5
a44
100
AcDbEntity
8
1
6
CONTINUOUS
62
5
100
AcDb2dPolyline
66
1
10
0.0
20
0.0
30
0.0
70
0
0
VERTEX
5
a45
100
AcDbEntity
8
1
100
AcDbVertex
100
AcDb2dVertex
62
5
10
148.999990
20
210.000002
0
VERTEX
5
a46
100
AcDbEntity
8
1
100
AcDbVertex
100
AcDb2dVertex
62
5
10
148.999990
20
213.250001
0
VERTEX
5
a47
100
AcDbEntity
8
1
100
AcDbVertex
100
AcDb2dVertex
62
5
10
153.299997
20
213.250001
0
SEQEND
5
a48
100
AcDbEntity
8
1
0
ARC
5
a49
100
AcDbEntity
8
1
100
AcDbCircle
6
CONTINUOUS
62
5
10
153.299997
20
214.250001
40
1.000000
100
AcDbArc
50
-89.999999
51
-0.000000
0
LINE
5
a4a
100
AcDbEntity
8
1
100
AcDbLine
6
CONTINUOUS
62
5
10
154.299997
20
214.250001
11
154.299997
21
215.000000
0
ARC
5
a4b
100
AcDbEntity
8
1
100
AcDbCircle
6
CONTINUOUS
62
5
10
153.299997
20
215.000000
40
1.000000
100
AcDbArc
50
0.000000
51
89.999999
0
LINE
5
a4c
100
AcDbEntity
8
1
100
AcDbLine
6
CONTINUOUS
62
5
10
153.299997
20
216.000000
11
109.300002
21
216.000000
0
POLYLINE
5
a4d
100
AcDbEntity
8
1
6
DOT2
62
5
100
AcDb2dPolyline
66
1
10
0.0
20
0.0
30
0.0
70
0
0
VERTEX
5
a4e
100
AcDbEntity
8
1
100
AcDbVertex
100
AcDb2dVertex
62
5
10
0.000000
20
350.000000
0
VERTEX
5
a4f
100
AcDbEntity
8
1
100
AcDbVertex
100
AcDb2dVertex
62
5
10
0.000000
20
360.000000
0
VERTEX
5
a50
100
AcDbEntity
8
1
100
AcDbVertex
100
AcDb2dVertex
62
5
10
10.000000
20
360.000000
0
SEQEND
5
a51
100
AcDbEntity
8
1
0
POLYLINE
5
a52
100
AcDbEntity
8
1
6
DOT2
62
5
100
AcDb2dPolyline
66
1
10
0.0
20
0.0
30
0.0
70
0
0
VERTEX
5
a53
100
AcDbEntity
8
1
100
AcDbVertex
100
AcDb2dVertex
62
5
10
330.000000
20
360.000000
0
VERTEX
5
a54
100
AcDbEntity
8
1
100
AcDbVertex
100
AcDb2dVertex
62
5
10
340.000000
20
360.000000
0
VERTEX
5
a55
100
AcDbEntity
8
1
100
AcDbVertex
100
AcDb2dVertex
62
5
10
340.000000
20
350.000000
0
SEQEND
5
a56
100
AcDbEntity
8
1
0
POLYLINE
5
a57
100
AcDbEntity
8
1
6
DOT2
62
5
100
AcDb2dPolyline
66
1
10
0.0
20
0.0
30
0.0
70
0
0
VERTEX
5
a58
100
AcDbEntity
8
1
100
AcDbVertex
100
AcDb2dVertex
62
5
10
340.000000
20
10.000000
0
VERTEX
5
a59
100
AcDbEntity
8
1
100
AcDbVertex
100
AcDb2dVertex
62
5
10
340.000000
20
0.000000
0
VERTEX
5
a5a
100
AcDbEntity
8
1
100
AcDbVertex
100
AcDb2dVertex
62
5
10
330.000000
20
0.000000
0
SEQEND
5
a5b
100
AcDbEntity
8
1
0
POLYLINE
5
a5c
100
AcDbEntity
8
1
6
DOT2
62
5
100
AcDb2dPolyline
66
1
10
0.0
20
0.0
30
0.0
70
0
0
VERTEX
5
a5d
100
AcDbEntity
8
1
100
AcDbVertex
100
AcDb2dVertex
62
5
10
10.000000
20
0.000000
0
VERTEX
5
a5e
100
AcDbEntity
8
1
100
AcDbVertex
100
AcDb2dVertex
62
5
10
0.000000
20
0.000000
0
VERTEX
5
a5f
100
AcDbEntity
8
1
100
AcDbVertex
100
AcDb2dVertex
62
5
10
0.000000
20
10.000000
0
SEQEND
5
a60
100
AcDbEntity
8
1
0
ARC
5
a61
100
AcDbEntity
8
1
100
AcDbCircle
6
CONTINUOUS
62
5
10
209.999997
20
193.650017
40
0.700000
100
AcDbArc
50
89.999999
51
-179.999998
0
LINE
5
a62
100
AcDbEntity
8
1
100
AcDbLine
6
CONTINUOUS
62
5
10
209.299997
20
193.650017
11
209.299997
21
126.350017
0
ARC
5
a63
100
AcDbEntity
8
1
100
AcDbCircle
6
CONTINUOUS
62
5
10
209.999997
20
126.350017
40
0.700000
100
AcDbArc
50
179.999998
51
-89.999999
0
LINE
5
a64
100
AcDbEntity
8
1
100
AcDbLine
6
CONTINUOUS
62
5
10
209.999997
20
125.650017
11
213.350005
21
125.650017
0
LINE
5
a65
100
AcDbEntity
8
1
100
AcDbLine
6
CONTINUOUS
62
5
10
213.350005
20
194.350017
11
209.999997
21
194.350017
0
POLYLINE
5
a66
100
AcDbEntity
8
1
6
CONTINUOUS
62
5
100
AcDb2dPolyline
66
1
10
0.0
20
0.0
30
0.0
70
1
0
VERTEX
5
a67
100
AcDbEntity
8
1
100
AcDbVertex
100
AcDb2dVertex
62
5
10
10.000000
20
10.000000
0
VERTEX
5
a68
100
AcDbEntity
8
1
100
AcDbVertex
100
AcDb2dVertex
62
5
10
10.000000
20
350.000000
0
VERTEX
5
a69
100
AcDbEntity
8
1
100
AcDbVertex
100
AcDb2dVertex
62
5
10
330.000000
20
350.000000
0
VERTEX
5
a6a
100
AcDbEntity
8
1
100
AcDbVertex
100
AcDb2dVertex
62
5
10
330.000000
20
10.000000
0
VERTEX
5
a6b
100
AcDbEntity
8
1
100
AcDbVertex
100
AcDb2dVertex
62
5
10
10.000000
20
10.000000
0
SEQEND
5
a6c
100
AcDbEntity
8
1
0
ENDSEC
0
SECTION
2
OBJECTS
0
DICTIONARY
5
a6d
100
AcDbDictionary
3
ACAD_GROUP
350
a6e
3
ACAD_MLINESTYLE
350
a6f
0
DICTIONARY
5
a6e
102
{ACAD_REACTORS
330
a6d
102
}
100
AcDbDictionary
0
DICTIONARY
5
a6f
102
{ACAD_REACTORS
330
a6d
102
}
100
AcDbDictionary
3
STANDARD
350
a70
0
MLINESTYLE
5
a70
102
{ACAD_REACTORS
330
a6f
102
}
100
AcDbMlineStyle
2
STANDARD
70
0
3

62
0
51
90.0
52
90.0
71
2
49
0.5
62
256
6
BYLAYER
49
-0.5
62
256
6
BYLAYER
0
ENDSEC
0
EOF
